Timoria - Senza Vento Chords & Tabs

 

Senza Vento Chords & Tabs

Timoria Chords & Tabs

Version: 2 Type: Bass Tab 0 ratings
1 star 2 stars 3 stars 4 stars 5 stars
comments

Senza Vento Bass Tab

   
Senza Vento
Artist: Timoria
Album: Viaggio senza vento

It's a very simple song!!

Standard tuning (E,A,D,G)

Intro/Verse/Guitar solo
G:-------------------------:|
D:*-----------------------*:|
A:*-----------------------*:|
E:--0-0--0-0--5-5--3--5-3--:|
[ Tab from: http://www.guitartabs.cc/tabs/t/timoria/senza_vento_btab_ver_2.html ]
Prechorus
G:------4-4-----4-4-----5-5-----5-5--:|
D:*---------------------------------*:|
A:*-2-2-----2-2-----3-3-----3-3-----*:|
E:-----------------------------------:|

Chorus
G:--------------------------------------------:|
D:*------------------------------------------*:|
A:*------------------------3-3--3-3--5-5--5-5*:|
E:--0-0--0-0--5-5--3--5-3---------------------:|


Enjoy Yourself!!!

Tabbed by Lollo 
e-mail me to lollo@vangoof.zzn.com
Comments