Timoria - 20 Chords & Tabs

 

20 Chords & Tabs

Timoria Chords & Tabs

Version: 1 Type: Bass Tab 0 ratings
1 star 2 stars 3 stars 4 stars 5 stars
comments

20 Bass Tab

   
2020
Artist: Timoria
Album: 2020 Speedball

Standard tuning (E,A,D,G)
    Verse

G:----------------------------------------------|
D:*--------------------------------------------*|
A:*-----------3----------------3--2--0---------*|
E:--2--2-2-2------2--2-2-2--------------0-------|

Fill 1

G:------------|
D:*----------*|
A:*----------*|
E:---3-0-1-0--|

    Pre-chorus
G:----------------------------------|
D:----------------------------------|
A:--5-5-5-5-5-5-5-5-5-5-5-5-5-5-5-5-|
E:----------------------------------|
[ Tab from: http://www.guitartabs.cc/tabs/t/timoria/20_btab.html ]
    Chorus
G:-----------------------------------------------------------------|
D:-------------------------------------------------0-0-0-0-2-2-2-2-|
A:-----------------5-5-5-5-5-5-5-5-2-2-2-2-2-2-2-2-----------------|
E:-2-2-2-2-2-2-2-2-------------------------------------------------|

   Outro
G:----------------|
D:*--------------*|
A:*-----------3--*|
E:--2--2-2-2------|

Verse  X2
Fill 1
Verse  X2
Fill 1
Verse  X2
Prechorus
Chorus X3
Verse  X2
Fill 1
Verse  X2
Prechorus
Chorus until the end
Outro


Tabbed by Lollo!!
Enjoy yourself!!
E-mail me at lollo@vangoof.zzn.com for correction!
Comments