Time-lapse Consortium - Tres Puntos Chords & Tabs

 

Tres Puntos Chords & Tabs

Time-lapse Consortium Chords & Tabs

Version: 1 Type: Tab 0 ratings
1 star 2 stars 3 stars 4 stars 5 stars
comments

Tres Puntos Tab

Time Lapse Consortium - Tres Puntos

drum intro
0:00 > 0:31

0:31 > 0:33
e:-----------------------------
b:-----------------------------
g:-----------------------------
d:-----------------------------
a:-----------------------------
e:-12--- slide down fretboard with finger whilst still hiting the string and palm-muting

riff 1
0:33 > 0:44
e:-0---1---3---1---------------
b:-0---1---3---1----------------
g:-1---2---4---2----------------
d:-2---3---5---3----------------
a:-2---3---5---3----------------
e:-0---1---3---1---------------- 
these chords are played, and im sure you can figure out the rhythm and timing yourself

riff 2
0:44 > 1:07
e:-12-10-12-10-8-7-8-5-4-5-4-2-0-0---1---3---1
b:-------------------------------0---1---3---1
g:-------------------------------1---2---4---2
d:-------------------------------2---3---5---3
a:-------------------------------2---3---5---3
e:-------------------------------0---1---3---1
the notes played on the e string are played many times rapidly so you
will have to do some working out, same with the chords

riff 3
1:07 > 1:14
e:-5---3---1---0-------------------
b:-5---3---1---0-------------------
g:-4---4---2---1-------------------
d:-7---5---3---2-------------------
a:-7---5---3---2-------------------
e:-5---3---1---0-------------------
haha, again, you will need to work out timing and rythem yourself, but its not hard!

back to riff 1 
1:14 > 1:22
then riff 2
1:22 > 1:44
then riff 3
1:45 > 1:52
then riff 1 again, but palm-muted
1:53 > 1:58
[ Tab from: http://www.guitartabs.cc/tabs/t/time_lapse_consortium/tres_puntos_tab.html ]
'surfing USA' riff
1:58 > 2:10
e:-------------------------------------7-5-5----7-7-7/11-
b:-------7-5-----------------------7-5-------7-----------
g:-----7-----4-4-4---6-4---------7-------------7---------
d:-9-9-------------7---------9-9-------------------------
a:-------------------------------------------------------
e:-------------------------------------------------------
2:10 >2:21
e:-12--------------------------12---------------------------7-5-5-------
b:-12-10-----------------------12-10------------------------------7---5-
g:-------12-11-9-11-12----9/---------12-11-9-11-12----9~9-9---------7---
d:---------------------12--------------------------12-------------------
a:----------------------------------------------------------------------
e:----------------------------------------------------------------------
2:21 > 2:27
e:--------------------7-5---5-5-8-12-11---11-11-13-17-15---15-15-18-22--
b:-------7-5--------8---------------------------------------------------
g:-----7--------9-9-----------------------------------------------------
d:-9-9------------------------------------------------------------------
a:----------------------------------------------------------------------
e:----------------------------------------------------------------------
2:27 > 2:42
e:-12-11-10-------------------------
b:----------11-10-------------------
g:----------------12-11-10----------
d:-------------------------12-11-10- x 8
a:----------------------------------
e:----------------------------------
2:42 > 2:45
e:-14-15-14-11-----------------
b:-----------------------------
g:-----------------------------
d:----------------------------- x 5
a:-----------------------------
e:-----------------------------

it pretty much goes mad for 5 seconds with Mike just improvising
some thing around that last riff, then it goes back to..
riff 1
2:50 > END

TA-DA!!!!
hope this sounds correct to the rest of you TLC mad men/women,
please feel free to comment on it and let me know what i might have done wrong

DANIEL ALEXANDER REID
Comments