Time-lapse Consortium - Patrollin Chords & Tabs

 

Patrollin Chords & Tabs

Time-lapse Consortium Chords & Tabs

Version: 1 Type: Tab 0 ratings
1 star 2 stars 3 stars 4 stars 5 stars
comments

Patrollin Tab

   
Author/Artist: Time-Lapse Consortium
Title: Patrollin'
Album: Bootleg
Transcribed by: Andrew Biles
Email: andrewbiles@hotmail.com

Only had this bootleg cd a day, and this is by far my fav song already, nice
funky vibe to it.  I totally recommend this cd to anyone a fan of jazz/funk
music, it's a limited edition of 10,000 copies, which really isn't many in the
world of music.  Features Mike Einziger of incubus, their new bassist Ben Kenney,
Suzie Katayama and Jose Pasillas II also of incubus.
Anyway, here's a start to the song, I'm not entirely sure if the verse is right
so it may change sometime.  (update - like I said I'd renew the verse, and I
have, there's another option in there now and you can see which you think it more
correct, I think the second one now is the correct one)
Standard tuning, and just try and get a loose wrist for the funky rhythms.

Intro
|------------------------------------------------------------------------------
|------------------------------------------------------------------------------
|------------------------------------------------------------------------------
|-x---x---x---x-x-x-x-x-x-x-x-6-6-7-7-8-----------6-6-7-7-8-----------6-6-7-7--
|-x---x---x---x-x-x-x-x-x-x-x-------------------------------4-4-4-4-4----------
|-x---x---x---x-x-x-x-x-x-x-x-----------6-6-6-6-6------------------------------

------------------------------------------------------------------------------
-------------------------9v---------------------------------------------------
-------------8p6---6---8------------------------------------------------------
-8---------------8--------------6-6-7-7-8-----------6-6-7-7-8-----------6-6---
---6-6-6-6-6--------------------------------------------------4-4-4-4-4-------
------------------------------------------6-6-6-6-6---------------------------

------------------------------------------------------------------------------
------------------------------6-----------------------------------------------
-----------------8p6---6----6-------------------------------------------------
-7-7-8---------------8-------------6-6-7-7-8-----------6-6-7-7-8-----------6--
-------6-6-6-6-6-------------------------------------------------4-4-4-4-4----
---------------------------------------------6-6-6-6-6------------------------

------------------------------------------------------------------------------
-------------------------------9v---------------------------------------------
-------------------8p6---6---8------------------------------------------------
-6-7-7-8---------------8-------------6-6-7-7-8-----------6-6-7-7-8------------
---------6-6-6-6-6-------------------------------------------------4-4-4-4-4--
-----------------------------------------------6-6-6-6-6----------------------

------------------------------
------------------------------
---------------------8p6---6--
-6-6-7-7-8---------------8----
-----------6-6-6-6-6----------
------------------------------

"Verse"
---------4--4-4-----6------4--4-4--4-4-4-4---------4--4-4-----6------4--4-4---
---------4--4-4-----6------4--4-4--4-4-4-4---------4--4-4-----6------4--4-4---
----/6----------/6--6--/6----------4-4-4-4----/6----------/6--6--/6-----------
-x-x/8-x--------/8--8--/8----------3-3-3-3-x--/8-x--------/8--8--/8-----------
-x-x---x--------/8-----/8------------------x-----x--------/8-----/8-----------
-x-x---x-----------------------------------x-----x----------------------------
    G#m          A#m       G#m     C#9        G#m

-/9-9-9-9----
-/9-9-9-9----
-------------
-------------
-------------
-------------
 C#m      x3

"Verse" version 2
------------------------------------6-6-6-6---------------------------------9-
-----------9--9-9-----6-----9--9-9--6-6-6-6--------9--9-9-----6-----9--9-9--9-
-x-x-----x-6--6-6-6h8-6-6h8-6--6-6--6-6-6-6------x-6--6-6-6h8-6-6h8-6--6-6----
-x-x-6h8-x--------6h8---6h8------------------6h8-x--------6h8---6h8-----------
-x-x-----x---------------------------------------x----------------------------
------------------------------------------------------------------------------
                                                                              
-9-9--
-9-9--
------
------
------
------
[ Tab from: http://www.guitartabs.cc/tabs/t/time_lapse_consortium/patrollin_tab.html ]
Bridge thing
--------------------4-4--------------------------------------------------4-4--
--------------------4-4----------------------7--7-7----------------------4-4--
-8-6-------8-6------------8-6-------8-6------6--6-6---8-6-------8-6-----------
-----8-6-------8-6------------8-6-------8-6--7--7-7-------8-6-------8-6-------
---------------------------------------------5--5-5---------------------------
------------------------------------------------------------------------------
                    G#m                      Dmaj7                       G#m

---------------------------
--------------------7--7-7-
-8-6-------8-6------6--6-6-
-----8-6-------8-6--7--7-7-
--------------------5--5-5-
---------------------------
                    Dmaj7

-------------------4-4-------------------------------------------------4-4----
-------------------4-4---------------------7--7-7----------------------4-4----
-8-6------8-6------------8-6------8-6------6--6-6---8-6-------8-6-------------
-----8-6------8-6------------8-6------8-6--7--7-7-------8-6-------8-6---------
-------------------------------------------5--5-5-----------------------------
------------------------------------------------------------------------------
 
---------------------------
-------------------7--7-7--
-8-6------8-6------6--6-6--
-----8-6------8-6--7--7-7--
-------------------5--5-5--
--------------------------- 

"verse"
---------4--4-4-----6------4--4-4--4-4-4-4---------4--4-4-----6------4--4-4---
---------4--4-4-----6------4--4-4--4-4-4-4---------4--4-4-----6------4--4-4---
----/6----------/6--6--/6----------4-4-4-4----/6----------/6--6--/6-----------
-x-x/8-x--------/8--8--/8----------3-3-3-3-x--/8-x--------/8--8--/8-----------
-x-x---x--------/8-----/8------------------x-----x--------/8-----/8-----------
-x-x---x-----------------------------------x-----x----------------------------

-/9-9-9-9------------------------------------------
-/9-9-9-9------------------------------------------
---------------------------------------------------
---------------------------------------------------
---------------------------------------------------
---------------------------------------------------
         x2..............small break...............

"Verse" version 2
------------------------------------6-6-6-6---------------------------------9-
-----------9--9-9-----6-----9--9-9--6-6-6-6--------9--9-9-----6-----9--9-9--9-
-x-x-----x-6--6-6-6h8-6-6h8-6--6-6--6-6-6-6------x-6--6-6-6h8-6-6h8-6--6-6----
-x-x-6h8-x--------6h8---6h8------------------6h8-x--------6h8---6h8-----------
-x-x-----x---------------------------------------x----------------------------
------------------------------------------------------------------------------
                                                                              
-9-9--
-9-9--
------
------
------
------
     x2

Bridge version 2
|-------------------4-4-------------------------------------------------4-4----
|-------------------4-4---------------------7--7-7----------------------4-4----
|-8-6------8-6------------8-6------8-6------6--6-6---8-6-------8-6-------------
|-----8-6------8-6------------8-6------8-6--7--7-7-------8-6-------8-6---------
|-------------------------------------------5--5-5-----------------------------
|------------------------------------------------------------------------------

--------------------------
-------------------7--7-7-
-8-6------8-6------6--6-6-
-----8-6------8-6--7--7-7-
-------------------5--5-5-
--------------------------

-------------------4-4-------------------------------------------------4-4----
-------------------4-4---------------------7--7-7----------------------4-4----
-8-6------8-6------------8-6------8-6------6--6-6---8-6-------8-6-------------
-----8-6------8-6------------8-6------8-6--7--7-7-------8-6-------8-6---------
-------------------------------------------5--5-5-----------------------------
------------------------------------------------------------------------------

--------------------------------------------------------
--------------------------------------------------------
-8-6------8-6-------------------------------------------
-----8-6------8-6---------------------------------------
------------------8-6-4--6-6-4--6-6-4--6-6-4--6-4-------
--------------------------------------------------6-4-6-


|-------------------------------------------------------
|-------------------------------------------------------
|-------------------------------------------------------
|-----------------------4-------------------------------
|---------------------4---6-----------------------------
|-4-4-6--4-4-6--4-4-6-------6--4-4-6--4-4-6--0-3-4-6----
                                                     x2

|------------------------------------------------------------------------------
|------------------------------------------------------------------------------
|---6---------------6-----6----------------6---6/8-6---6---6---6/8---6---6-----
|---------------------8------6--6-6-6--4-----8-------8-------8-----8-------8---
|----------------------------4--4-4-4--4---------------------------------------
|-6---5---4---3---6-----5----2--2-2-2--2-6---------------5-------------4-------
 
---------
---------
-6/8-6-6-
---------
---------
---------

any comments/questions? andrewbiles@hotmail.com
Comments