Timberlake Justin - Like I Love You Chords & Tabs

 

Like I Love You Chords & Tabs

Timberlake Justin Chords & Tabs

Version: 2 Type: Tab 0 ratings
1 star 2 stars 3 stars 4 stars 5 stars
comments

Like I Love You Tab

   
Justin timberlake- like i love you

tabbed by: Antony Moore

ok ppl i dont no if this is 100% but when i play it it sounds pretty close or exact :)

liten to the song for the timing of each strum and you should get it down in no time


standard tuning:


v= strum down  ^= strum up


          v           v   ^   v
E---------x-----------x---x---x---  
B---------x-----------x---x---x---  
G---------7-----------7---7---7---   X3
D---------7-9---------7-9-7-9-7-9-
A---------7-9---------7-9-7-9-7-9-
E---------7-----------7---7---7---


no this is where you gotta move that hand baby!
[ Tab from: http://www.guitartabs.cc/tabs/t/timberlake_justin/like_i_love_you_tab_ver_2.html ]
strum this part quicker than normal

          V   ^   V     V    ^    V
E---------x---x---x-----x----x----x-----x---|
B---------x---x---x-----x----x----x-----x---|
G---------7---7---7-----8----8----8-----5---|    repeat from start
D---------7-9-7-9-7-9---8-10-8-10-10----5-7-|
A---------7-9-7-9-7-9---8-10-8-10-10----5-7-|
E---------7---7---7-----8----8----8-----5---|

there you go ppl i hope it helps you, i figured this one out so

i wanted to pass it on to you guys, simple but sounds good

any questions email me at: boomstick@blueyonder.co.uk

enjoy!

peace out

A.Moore











Comments