Timberlake Justin - Like I Love You Chords & Tabs

 

Like I Love You Chords & Tabs

Timberlake Justin Chords & Tabs

Version: 1 Type: Tab 1 rating
1 star 2 stars 3 stars 4 stars 5 stars
comments

Like I Love You Tab


This is the main thingie
e|--2---2--2--2----|--2---2--2--2----|--2---2--2--2----|--2--2---3--1----|
B|--3---3--3--3----|--3---3--3--3----|--3---3--3--3----|--3--3---4--2----|
G|--4---4--4--4----|--4---4--4--4----|--4---4--4--4----|--4--4---5--3----|
D|--4---4--4--4----|--4---4--4--4----|--4---4--4--4----|--4--4---5--3----|
A|--2---2--2--2----|--2---2--2--2----|--2---2--2--2----|--2--2---3--1----|
E|--2---2--2--2----|--2---2--2--2----|--2---2--2--2----|--2--2---3--1----|

[ Tab from: http://www.guitartabs.cc/tabs/t/timberlake_justin/like_i_love_you_tab.html ]
Then at 2mins and 30secs into the song you play
He says:
    Maybe we'll fly the night away
e|---3---2---1---|
B|---3---2---1---|
G|---4---3---2---|
D|---5---4---3---|
A|---5---4---3---|
E|---3---2---1---|
This is the Riff that goes wit that
e|-----------14----14-12-11-----|
B|----7--/9---------------------|
G|------------------------------|
D|------------------------------|
A|------------------------------|
E|------------------------------|


This is that thing at the end.  I can play it till u get tired i dont care.
He says:
    Break it down
e|-------12-13---------12--|
B|-12-13------12-13--12----|
G|-------------------------|
D|-------------------------|
A|-------------------------|
E|-------------------------| 



Felix-
    aol sn... WierdDude2005

Comments