Timberlake Justin - Like I Love You Chords & Tabs

 

Like I Love You Chords & Tabs

Timberlake Justin Chords & Tabs

Version: 1 Type: Chords 0 ratings
1 star 2 stars 3 stars 4 stars 5 stars
comments

Like I Love You Chords

   
Submitted By: Anthony Cox
Email:        Dookie_1000@hotmail.com

Justin Timberlake - Like i love you

Came up with this when i was bored and messing around on my guitar, 
catchy tune and easy to play. best played on acoustic. Listen to the 
song to get the strumming pattern to play it right. If you like, 
create a drum beat with your hand on the guitar to make it sound 
better.

enjoy

     Eadgbe
Bm  (224332)
Cm  (335443)
Bbm (113221)

D = Down stroke
U = Up stroke


Intro + Verse

   Bm      Bm Bm Bm
[ Tab from: http://www.guitartabs.cc/tabs/t/timberlake_justin/like_i_love_you_crd.html ]
    D       D  U  D
E|--2--x----2--2--2---x----
B|--3--x----3--3--3---x-----
G|--4--x----4--4--4---x-----  x3
D|--4--x----4--4--4---x-----
A|--2--x----2--2--2---x-----
E|--2--x----2--2--2---x----


Then........

   Bm  Bm    Cm    Bbm

    D  U      D     U
E|--2--2--x---3--x--1--x----
B|--3--3--x---4--x--2--x-----
G|--4--4--x---5--x--3--x-----  x1
D|--4--4--x---5--x--3--x-----
A|--2--2--x---3--x--1--x-----
E|--2--2--x---3--x--1--x----


Then back to the first part

Repeat through the whole song
Comments