Timber Timbre - No Bold Villain Chords & Tabs

 

No Bold Villain Chords & Tabs

Timber Timbre Chords & Tabs

Version: 2 Type: Tab 0 ratings
1 star 2 stars 3 stars 4 stars 5 stars
comments

No Bold Villain Tab

   
Slide      /
Let ring  (#)
Hammer-on  h

Main Riff - Listen for variation, ringing notes, rhythm, up/down picking.

    E                 
E|---------------------------------------|
B|---------------------------------------|
G|---------------------------------------|
D|----------2-(2)-----------(2)----------|
A|--2-2--4--2-(2)-----4-2h4--------------|
E|----------0----0-0--0-0------0-0-0-----|

    E                 
E|---------------------------------------|
B|---------------------------------------|
G|---------------------------------------|
D|----2-----2-(2)-----------(2)----------|
A|--2-2--4--2-(2)-----4-2h4--------------|
E|--0-0--0--0--0-0-0--0-0------0-0-0-----|

    E        F#m
E|---------------------------------------|
B|--0------------------------------------|
G|--1-1-1/--2-2-----2-2----2---2-2-------|
D|--2-2-2/--4-4-----2-2-4--4---4-4-------|
A|----------4-4-----4-4----4---4-4-------|
E|-------------0-0-----------0-----------| etc.

[ Tab from: http://www.guitartabs.cc/tabs/t/timber_timbre/no_bold_villain_tab_ver_2.html ]
E
You're no bold villain, you're bought and sold.
          F#m
To have a soul-mate, you need a soul.
               B
Not born of men, but some bald mother moon.
                 A                           F#m
One of us is not normal, and it might not be you.

        E
I was a spook for you, another ghoul.
        F#m
I was a fool for you, another stool pigeon.
          B
I was the kid, see she was the clown.
             A                       F#m
And you took North, when things went South.

                   E
But you're no bold villain, you're bought and sold.
          F#m
To have a soul-mate, you need a soul.
            B
Not born of men, but some bald mother moon.
                 A                           F#m
One of us is not normal, and it might not be you.


Outro is just the main riff and a wicked violin/piano/slide medley. 
Nice and creepy. 

Love,
Andrew
Comments