Tim Skold - Dead God Chords & Tabs

 

Dead God Chords & Tabs

Tim Skold Chords & Tabs

Version: 2 Type: Tab 0 ratings
1 star 2 stars 3 stars 4 stars 5 stars
comments

Dead God Tab

   
Dropped D and tuned down 1/2 step

Riff
eb-----------------------------------------------------------|
Bb-----------------------------------------------------------|
Gb-----------------------------------------------------------|
Db--2-2-2-2--0-0-0-0--5--2---2-2-2-2--0-0--5--2--------------|
Ab--2-2-2-2--0-0-0-0--5--2---2-2-2-2--0-0--5--2--------------|
Db--2-2-2-2--0-0-0-0--5--2---2-2-2-2--0-0--5--2--------------|

(continued)
eb-----------------------------------------------------------|
Bb-----------------------------------------------------------|
Gb-----------------------------------------------------------|
Db--2-2-2-2--0-0-0-0--5--2--5--2--2-2-2-2--0-0--5--2---------|
Ab--2-2-2-2--0-0-0-0--5--2--5--2--2-2-2-2--0-0--5--2---------|
Db--2-2-2-2--0-0-0-0--5--2--5--2--2-2-2-2--0-0--5--2---------|

Chorus
eb-----------------------------------------------------------|
Bb-----------------------------------------------------------|
Gb-----------------------------------------------------------|
Db--2-2-2-2--0-0-0-0--5--2--x-x--x--2-2-2-2--0-0--5-2--------|
Ab--2-2-2-2--0-0-0-0--5--2--x-x--x--2-2-2-2--0-0--5-2--------|
Db--2-2-2-2--0-0-0-0--5--2--x-x--x--2-2-2-2--0-0--5-2--------|

(continued)
eb----------------------------------------------------------|
Bb----------------------------------------------------------|
Gb----------------------------------------------------------|
Db--x-x--x-x--x-x---2-2-2-2--0-0-0-0--5--2--5--2--2-2-2-2---|
Ab--x-x--x-x--x-x---2-2-2-2--0-0-0-0--5--2--5--2--2-2-2-2---|
Db--x-x--x-x--x-x---2-2-2-2--0-0-0-0--5--2--5--2--2-2-2-2---|

(continued)
eb-----------------------------------------------------------|
Bb-----------------------------------------------------------|
Gb-----------------------------------------------------------|
Db--0-0-0-0--5--2--x-x--x-x--x-x-----------------------------|
Ab--0-0-0-0--5--2--x-x--x-x--x-x-----------------------------|
Db--0-0-0-0--5--2--x-x--x-x--x-x-----------------------------|

Verse 1
eb----------------------------------------------------------|
Bb----------------------------------------------------------|
Gb----------------------------------------------------------|
Db--2--2----5--5----0--0----7--7--7-5----2--2----5--5-------|
Ab--2--2----5--5----0--0----7--7--7-5----2--2----5--5-------|
Db--2--2----5--5----0--0----7--7--7-5----2--2----5--5-------|
("Rewrite the constitution...")
[ Tab from: http://www.guitartabs.cc/tabs/t/tim_skold/dead_god_tab_ver_2.html ]
(continued)
eb----------------------------------------------------------|
Bb----------------------------------------------------------|
Gb----------------------------------------------------------|
Db--0--0--7--7--7-9-----------------------------------------|
Ab--0--0--7--7--7-9-----------------------------------------|
Db--0--0--7--7--7-9-----------------------------------------|

Verse 2
eb----------------------------------------------------------|
Bb----------------------------------------------------------|
Gb----------------------------------------------------------|
Db--2--2--x-x-x-x--5--5--x-x-x-x--0--0--x-x-x-x--7--7--7-5--|
Ab--2--2--x-x-x-x--5--5--x-x-x-x--0--0--x-x-x-x--7--7--7-5--|
Db--2--2--x-x-x-x--5--5--x-x-x-x--0--0--x-x-x-x--7--7--7-5--|
("If you're a part of the institution...")

(continued)
eb----------------------------------------------------------|
Bb----------------------------------------------------------|
Gb----------------------------------------------------------|
Db--2--2--x-x-x-x--5--5--x-x-x-x--0--0--x-x-x-x--7--7--7-9--|
Ab--2--2--x-x-x-x--5--5--x-x-x-x--0--0--x-x-x-x--7--7--7-9--|
Db--2--2--x-x-x-x--5--5--x-x-x-x--0--0--x-x-x-x--7--7--7-9--|

Pre-Chorus (each hit 2 times)
eb----------------------------------------------------------|
Bb----------------------------------------------------------|
Gb----------------------------------------------------------|
Db--10-10-10--9-9-9--7-7-7-7-7-7--5-5-5--4-4-4--2-2-2-2-2-2-|
Ab---x--x--x--x-x-x--x-x-x-x-x-x--x-x-x--x-x-x--x-x-x-x-x-x-|
Db--10-10-10--9-9-9--7-7-7-7-7-7--5-5-5--4-4-4--2-2-2-2-2-2-|
("I...I..I am the president...")

(continued)
eb----------------------------------------------------------|
Bb----------------------------------------------------------|
Gb---------------------------------7-7-7-7-7-7-7--8-8-8-8---|
Db--10-10-10--9-9-9--7-7-7--5-5-5--x-x-x-x-x-x-x--x-x-x-x---|
Ab---x--x--x--x-x-x--x-x-x--x-x-x--5-5-5-5-5-5-5--6-6-6-6---|
Db--10-10-10--9-9-9--7-7-7--5-5-5---------------------------|

Bridge A (Guitar 1)
eb----------------------------------------------------------|
Bb----------------------------------------------------------|
Gb----------------------------------------------------------|
Db--x-x-x-x--x-x--x-x--x---x-x-x-x--x-x--x-x--x-------------|
Ab--x-x-x-x--x-x--x-x--x---x-x-x-x--x-x--x-x--x-------------|
Db--x-x-x-x--x-x--x-x--x---x-x-x-x--x-x--x-x--x-------------|

Bridge B (Synthasizer arranged for Guitar 2)
eb--12-----10-----------------------------------------------|
Bb----------------13-----12-----10--------------------------|
Gb-------------------------------------12-----11------------|
Db----------------------------------------------------------|
Ab----------------------------------------------------------|
Db----------------------------------------------------------|


Riff
Chorus
Verse 1
Verse 2
Pre-Chorus
Chorus
Verse 1
Verse 2
Pre-Chorus
Chorus
Bridge A
Bridge A, B
Riff
Chorus
Chorus, Bridge B
Comments