Tim Skold - Dead God Chords & Tabs

 

Dead God Chords & Tabs

Tim Skold Chords & Tabs

Version: 1 Type: Tab 0 ratings
1 star 2 stars 3 stars 4 stars 5 stars
comments

Dead God Tab

   
Dead God by Tim Skold
Guitarist: Tim Skold
Album: ????????
Dif.: 6
Tabbed by TWIGGy5

NOTE: This is a TIM SKOLD DEMO!!! NOT MANSON!!
NOTE: Tune this song to drop d ½ (Db Ab Db Gb Bb Eb)
NOTE: * = strum 8x

Intro/Interlude
Db|-2-2-2-0-0-5-2\---2-2-2-2--0-5-2\--2-2-2-0-0-5-2-5-2-
Ab|-2-2-2-0-0-5-2\---2-2-2-2--0-5-2\--2-2-2-0-0-5-2-5-2-
Db|-2-2-2-0-0-5-2\---2-2-2-2--0-5-2\--2-2-2-0-0-5-2-5-2-

Intro/Interlude (cont.)
Db|-2-2-2-2--0-5-2\--|
Ab|-2-2-2-2--0-5-2\--|
Db|-2-2-2-2--0-5-2\--|

Intro P2/Chorus
Db|-2-2-2-2--0-5-2\--XX-XX---2-2-2-2--0-5-2\--XX-XX-XX--
Ab|-2-2-2-2--0-5-2\--XX-XX---2-2-2-2--0-5-2\--XX-XX-XX--
Db|-2-2-2-2--0-5-2\--XX-XX---2-2-2-2--0-5-2\--XX-XX-XX--

Intro P2/Chorus/Outro
Db|-2-2-2-0-0-5-2-5-2---2-2-2-2--0-5-2\-XX-XX-XX-|
Ab|-2-2-2-0-0-5-2-5-2---2-2-2-2--0-5-2\-XX-XX-XX-|
Db|-2-2-2-0-0-5-2-5-2---2-2-2-2--0-5-2\-XX-XX-XX-|

Verse
Db|-2-2-R----5-5-R----0-0-R----7-7--7--5----
Ab|-2-2-R----5-5-R----0-0-R----7-7--7--5----
Db|-2-2-R----5-5-R----0-0-R----7-7--7--5----

Verse (cont.)
Db|-2-2-R----5-5-R----0-0-R----7-7--7--9----|
Ab|-2-2-R----5-5-R----0-0-R----7-7--7--9----|
Db|-2-2-R----5-5-R----0-0-R----7-7--7--9----|

Verse P2 (“If you’re a part of……….”)
Db|-2-2--XX-XX---5-5--XX-XX---0-0--XX-XX---7-7--7--5----
Ab|-2-2--XX-XX---5-5--XX-XX---0-0--XX-XX---7-7--7--5----
Db|-2-2--XX-XX---5-5--XX-XX---0-0--XX-XX---7-7--7--5----

Verse P2 (cont.)
Db|-2-2--XX-XX---5-5--XX-XX---0-0--XX-XX---7-7--7--9----
Ab|-2-2--XX-XX---5-5--XX-XX---0-0--XX-XX---7-7--7--9----
Db|-2-2--XX-XX---5-5--XX-XX---0-0--XX-XX---7-7--7--9----

Pre-Chorus (“Oi, oi, I am the president……..”)
Db|-10(6x)-9(6x)-7(12x)-5(6x)-4(6x)-2(12x)--
Ab|-10(6x)-9(6x)-7(12x)-5(6x)-4(6x)-2(12x)--
Db|-10(6x)-9(6x)-7(12x)-5(6x)-4(6x)-2(12x)--

Pre-Chorus (cont.)
Gb|--------------------------7------8*-|
Db|-10(6x)-9(6x)-7(6x)-5(6x)-7------8*-|
Ab|-10(6x)-9(6x)-7(6x)-5(6x)-5(12x)-6*-|
Db|-10(6x)-9(6x)-7(6x)-5(6x)-----------|

Bridge (Gtr. 1)
Ab|-0-0-0--0-0-0--|
Db|-0-0-0--0-0-0--|

Bridge/Outro (Synth. Arr for Gtr. 2)
Eb|-12-------------10-------------------------------
Bb|-------------------------------13-------------12-

Bridge/Outro (cont.) (Gtr. 2)
Bb|-----------10--------------------------------|
Gb|--------------------------12------------11---|

Outro (Gtr. 1)
Db|-2-2-2-2--0-5-2\--XX-XX---2-2-2-2--0-5-2\--XX-XX-XX--
Ab|-2-2-2-2--0-5-2\--XX-XX---2-2-2-2--0-5-2\--XX-XX-XX--
Db|-2-2-2-2--0-5-2\--XX-XX---2-2-2-2--0-5-2\--XX-XX-XX--

Outro (cont.)
Db|-2-2-2-0-0-5-2-5-2---2-2-2-2--0-5-2\-|
Ab|-2-2-2-0-0-5-2-5-2---2-2-2-2--0-5-2\-|
Db|-2-2-2-0-0-5-2-5-2---2-2-2-2--0-5-2\-|

Song Structure: -
Siren
Intro
Drum Roll
Intro P2
Verse (“Rewrite the constitution…..”)
Verse P2 (“If you’re a part……”)
Pre-Chorus
Chorus (“The only good god…….”)
Verse (“Don’t draw your……”)
Verse P2 (“There will be no……”)
Pre-Chorus
Chorus
Bridge (Gtr. 1)/Bridge (Gtr. 2)/With Siren Noises
Interlude
Chorus
Outro (Gtr. 1)/Outro (Gtr. 2)

Alright there ya go. A little easy but you can get the hang of it. 
If you have any comments, corrections or suggestions email me at toxic345x@yahoo.ca
===========Marilyn Manson - Dead God
Tabbed By: Joe Muggah
EMail: joe_the_man3@hotmail.com


Dropped D and tuned down 1/2 step

Riff
eb----------------------------------------------------------
Bb----------------------------------------------------------
Gb----------------------------------------------------------
Db--2-2-2-2--0-0-0-0--5--2---2-2-2-2--0-0--5--2-----------
Ab--2-2-2-2--0-0-0-0--5--2---2-2-2-2--0-0--5--2-----------
Db--2-2-2-2--0-0-0-0--5--2---2-2-2-2--0-0--5--2-----------

(continued)
eb----------------------------------------------------------
Bb----------------------------------------------------------
Gb----------------------------------------------------------
Db--2-2-2-2--0-0-0-0--5--2--5--2--2-2-2-2--0-0--5--2-------
Ab--2-2-2-2--0-0-0-0--5--2--5--2--2-2-2-2--0-0--5--2-------
Db--2-2-2-2--0-0-0-0--5--2--5--2--2-2-2-2--0-0--5--2-------
[ Tab from: http://www.guitartabs.cc/tabs/t/tim_skold/dead_god_tab.html ]
Chorus
eb----------------------------------------------------------
Bb----------------------------------------------------------
Gb----------------------------------------------------------
Db--2-2-2-2--0-0-0-0--5--2--x-x--x--2-2-2-2--0-0--5-2-----
Ab--2-2-2-2--0-0-0-0--5--2--x-x--x--2-2-2-2--0-0--5-2-----
Db--2-2-2-2--0-0-0-0--5--2--x-x--x--2-2-2-2--0-0--5-2-----

(continued)
eb----------------------------------------------------------
Bb----------------------------------------------------------
Gb----------------------------------------------------------
Db--x-x--x-x--x-x---2-2-2-2--0-0-0-0--5--2--5--2--2-2-2-2---
Ab--x-x--x-x--x-x---2-2-2-2--0-0-0-0--5--2--5--2--2-2-2-2---
Db--x-x--x-x--x-x---2-2-2-2--0-0-0-0--5--2--5--2--2-2-2-2---

(continued)
eb----------------------------------------------------------
Bb----------------------------------------------------------
Gb----------------------------------------------------------
Db--0-0-0-0--5--2--x-x--x-x--x-x---------------------------
Ab--0-0-0-0--5--2--x-x--x-x--x-x---------------------------
Db--0-0-0-0--5--2--x-x--x-x--x-x---------------------------

Verse 1
eb----------------------------------------------------------
Bb----------------------------------------------------------
Gb----------------------------------------------------------
Db--2--2----5--5----0--0----7--7--7-5----2--2----5--5-------
Ab--2--2----5--5----0--0----7--7--7-5----2--2----5--5-------
Db--2--2----5--5----0--0----7--7--7-5----2--2----5--5-------
("Rewrite the constitution...")

(continued)
eb----------------------------------------------------------
Bb----------------------------------------------------------
Gb----------------------------------------------------------
Db--0--0--7--7--7-9-----------------------------------------
Ab--0--0--7--7--7-9-----------------------------------------
Db--0--0--7--7--7-9-----------------------------------------

Verse 2
eb----------------------------------------------------------
Bb----------------------------------------------------------
Gb----------------------------------------------------------
Db--2--2--x-x-x-x--5--5--x-x-x-x--0--0--x-x-x-x--7--7--7-5--
Ab--2--2--x-x-x-x--5--5--x-x-x-x--0--0--x-x-x-x--7--7--7-5--
Db--2--2--x-x-x-x--5--5--x-x-x-x--0--0--x-x-x-x--7--7--7-5--
("If you're a part of the institution...")

(continued)
eb----------------------------------------------------------
Bb----------------------------------------------------------
Gb----------------------------------------------------------
Db--2--2--x-x-x-x--5--5--x-x-x-x--0--0--x-x-x-x--7--7--7-9--
Ab--2--2--x-x-x-x--5--5--x-x-x-x--0--0--x-x-x-x--7--7--7-9--
Db--2--2--x-x-x-x--5--5--x-x-x-x--0--0--x-x-x-x--7--7--7-9--

Pre-Chorus (each hit 2 times)
eb----------------------------------------------------------
Bb----------------------------------------------------------
Gb----------------------------------------------------------
Db--10-10-10--9-9-9--7-7-7-7-7-7--5-5-5--4-4-4--2-2-2-2-2-2-
Ab---x--x--x--x-x-x--x-x-x-x-x-x--x-x-x--x-x-x--x-x-x-x-x-x-
Db--10-10-10--9-9-9--7-7-7-7-7-7--5-5-5--4-4-4--2-2-2-2-2-2-
("I...I..I am the president...")

(continued)
eb----------------------------------------------------------
Bb----------------------------------------------------------
Gb---------------------------------7-7-7-7-7-7-7--8-8-8-8---
Db--10-10-10--9-9-9--7-7-7--5-5-5--x-x-x-x-x-x-x--x-x-x-x---
Ab---x--x--x--x-x-x--x-x-x--x-x-x--5-5-5-5-5-5-5--6-6-6-6---
Db--10-10-10--9-9-9--7-7-7--5-5-5---------------------------

Bridge A (Guitar 1)
eb----------------------------------------------------------
Bb----------------------------------------------------------
Gb----------------------------------------------------------
Db--x-x-x-x--x-x--x-x--x---x-x-x-x--x-x--x-x--x-------------
Ab--x-x-x-x--x-x--x-x--x---x-x-x-x--x-x--x-x--x-------------
Db--x-x-x-x--x-x--x-x--x---x-x-x-x--x-x--x-x--x-------------

Bridge B (Synthasizer arranged for Guitar 2)
eb--12-----10-----------------------------------------------
Bb----------------13-----12-----10--------------------------
Gb-------------------------------------12-----11------------
Db----------------------------------------------------------
Ab----------------------------------------------------------
Db----------------------------------------------------------


Riff
Chorus
Verse 1
Verse 2
Pre-Chorus
Chorus
Verse 1
Verse 2
Pre-Chorus
Chorus
Bridge A
Bridge A, B
Riff
Chorus
Chorus, Bridge B
Comments