Tim Reynolds Dave Matthews - Stream Live Chords & Tabs

 

Stream Live Chords & Tabs

Tim Reynolds Dave Matthews Chords & Tabs

Version: 1 Type: Tab 2 ratings
1 star 2 stars 3 stars 4 stars 5 stars
comments

Stream Live Tab

   
#----------------------------------PLEASE NOTE---------------------------------#
#This file is the author's own work and represents their interpretation of the #
#song. You may only use this file for private study, scholarship, or research. #
#------------------------------------------------------------------------------##

                                  STREAM (Live)
                           As recorded by Tim Reynolds
    (From the 2002 Album DAVE MATTHEWS TIM REYNOLDS - LIVE AT LUTHER COLLEGE)


Tuning - D A D G B E

 
|---^0--^0-(0)---^0--|-(0)-0--0-0-0-0-0-0--|
|---^0--^0-(0)---^0--|-(0)-0--0-0-0-0-0-0--|
|---^5--^5-(5)---^5--|-(5)-5--5-5-5-5-5-5--|
|---^5--^5-(5)---^5--|-(5)-5--5-5-5-5-5-5--|
|-------^0-(0)---^0--|-(0)-0--0-0-0-0-0-0--|
|-0------------------|--------0------------|

|----------0----||-----------------------0--|
|---7------0----||-----------------------0--|
|----------5----||-----------------------5--|
|----------5----||-----2-----3-----5-----5--|
|----------0----||-0h3---0h4---0h7----------|
|----------0----||-------------------0-0----|


|-(0)-----------------------|
|-(0)---------------------0-|
|-(5)-----4-----5-----7---5-|
|-(5)-0-5---0-7---0h9-----5-|
|---------------------------|
|-----------------------0---|


|-----------------------0-|-(0)-----------------------|
|-----------------------0-|-(0)---------------------0-|
|-----------------------5-|-(5)-----4-----5-----7---5-|
|-----2-----4-----5-----5-|-(5)-0-5---0-7---0-9-----5-|
|-0-3---0-5---0-5---------|---------------------------|
|-------------------0-0---|-----------------------0---|


 
|-----------------------0-|
|-----------------------0-|
|-----------------------5-|
|-----2-----4-----5-----5-|
|-0-3---0-5---0-5---------|
|-------------------0-0---|


|-(0)-----------------------|-----------------------0-|
|-(0)---------------------0-|-----------------------0-|
|-(5)-----4-----5-----7---5-|-----------------------5-|
|-(5)-0-5---0-7---0-9-----5-|-----2-----4-----5-----5-|
|---------------------------|-0-3---0-5---0-7---------|
|-----------------------0---|-------------------0-0---|

|-(0)-----------------------||--------------------------0-|
|-(0)-----------------------||o-------------------------0-|
|-(5)-----4-----4-----7---5-||--------------------------5-|
|-(5)-0h5---0-6---0-9-----5-||--4-5-4-2-----------------5-|
|---------------------------||o---------5-4-2-5-3-2-0-----|
|-----------------------0---||------------------------0---|


|----------------------------|
|----------------------------|
|---4-5-4-2---------------5--|
|-----------5-4-2-5-4-2-0-5--|
|----------------------------|
|----------------------------|

|-------------------------0-|
|-------------------------0-|
|-------------------------5-|
|-4-5-4-2-----------------5-|
|---------5-4-2-5-3-2-0-----|
|-----------------------0---|


|---7-8-7-5-----------------|-------------------------0-|
|-----------8-7---8---8-----|-------------------------0-|
|---------------5---5---7---|-------------------------5-|
|---------------------------|-4-5-4-2-----------------5-|
|---------------------------|-0-------5-4-2-5-3-2-0-----|
|-------------------------0-|-----------------------0---|


|---------------------------|
|---------------------------|
|---4-5-4-2---------------5-|
|-----------5-4-2-5-4-2-0-5-|
|---------------------------|
|---------------------------|

|-------------------------0-|---7-8-7-5-----------------|
|-------------------------0-|-----------8-7---8---8-----|
|-------------------------5-|---------------5---5---7---|
|-4-5-4-2-----------------5-|---------------------------|
|---------5-4-2-5-3-2-0-----|-------------------------0-|
|-----------------------0---|-------------------------0-|


|-----------------||-----------------------|-------0-0-----0-0-0-0----|
|-x-x-x-x-x-x-x-x-||-7-x-x-5-x-x-3-x-x-5-7-|-x-x-7-7-7-----7-7-7-7----|
|-x-x-x-x-x-x-x-x-||-5-x-x-3-x-x-1-x-x-3-5-|-x-x-5-5-5-----5-5-5-5----|
|-x-x-x-x-x-x-x-x-||-0-x-x-0-x-x-0-x-x-0-0-|-0-0-0-0-0---0-0-0-0-0-0--|
|-----------------||-----------------------|-----------0--------------|
|-----------------||-----------------------|-----------0--------------|


|---0---0---0---0---0---0---0---0-|
|-----3---3-------6---6-------7---|
|-1-----------3-----------5-------|
|---------------------------------|
|---------------------------------|
|---------------------------------|


                         1.
                 
|---0---0---0----7------|-----------------------------|
|-7---7---7----------|-7-x-x-x-5-x-x-x-3-x-x-x-5-7-|
|--------------------|-5-x-x-x-3-x-x-x-1-x-x-x-3-5-|
|-----------------------|-0-0-0-0-0-0-0-0-0-0-0-0-0-0-|
|-------------0-------0-|-----------------------------|
|---------------------0-|-----------------------------|


  
|---------------------0-0-|
|-x-7-7-x-x---x-x-7-7-7-7-|
|-x-5-5-x-x---x-x-5-5-5-5-|
|-0-0-0-0-0---0-0-0-0-0-0-|
|-----------0-------------|
|-----------0-------------|


  
|-------0---0---0---0---0---0---0-|---0---0-------------||
|---3-3---3-------6---6-------7---|-7---7---7-7--------o||
|-1-----------3-----------5-------|---------5-----------||
|---------------------------------|------------------------||
|---------------------------------|-----------------------o||
|---------------------------------|-------------0-------0--||


  2.
  
|-------------0-0-0-0-0-|-0-0-0-0-0-----0-0-0-0-0---|
|-7-x-x-5-x-x-3-x-x-5-7-|-x-x-7-7-7-----7-7-7-7-7---|
|-5-x-x-3-x-x-1-x-x-3-5-|-x-x-5-5-5-----5-5-5-5-5-5-|
|-0-0-0-0-0-0-0-0-0-0-0-|-0-0-0-0-0-0---0-0-0-0-0-0-|
|-----------------------|-----------0-0-------------|
|-----------------------|-----------0-0-------------|


 
|---0---0---0-|---0---0---0-|
|-----3---3---|-----5---5---|
|-1-----------|-3-----------|
|-------------|-------------|
|-------------|-------------|
|-------------|-------------|


  
|---0---0---0-|---0---0---0-|---0---0---0-|---0---0---0-|
|-----7---7---|-----7---7---|-----7---7---|-----7---7---|
|-5-----------|-5-----------|-5-----------|-5-----------|
|-------------|-------------|-------------|-------------|
|-------------|-------------|-------------|-------------|
|-------------|-------------|-------------|-------------|


  
|---0---0---0-|---0---0---0-|---0---0---0-|---------||
|-----7---7---|-----7---7---|-----7---7---|---------||
|-5-----------|-5-----------|-5-----------|----7-7--||
|-------------|-------------|-------------|---------||
|-------------|-------------|-------------|----5-5--||
|-------------|-------------|-------------|----0-0--||


  
||--------------------------|
||o-------------------------|
||--7-7-7-7-7-7-7-7-7-7-7-7-|
||--------------------------|
||o-5-5-5-5-5-5-5-5-5-5-5-5-|
||--0-0-0-0-0-0-0-0-0-0-0-0-|


  
|----------------------------|-------------------------|
|----------------------------|-------------------------|
|-7-x-x-14-x-x-13-x-x-11-x-x-|-7-7-7-7-7-7-7-7-7-7-7-7-|
|----------------------------|-------------------------|
|-5-x-x-12-x-x-11-x-x--9-x-x-|-5-5-5-5-5-5-5-5-5-5-5-5-|
|-0-0-0--0-0-0--0-0-0--0-0-0-|-0-0-0-0-0-0-0-0-0-0-0-0-|


  
|-------------------------|----------------------------|
|-------------------------|----------------------------|
|-7-x-x-5-x-x-4-x-x-2-2-4-|-4-/7-7-7-7-7-7-7-7-7-7-7-7-|
|-------------------2-2---|----------------------------|
|-5-x-x-3-x-x-2-x-x-0-0-2-|-2-/5-5-5-5-5-5-5-5-5-5-5-5-|
|-0-0-0-0-0-0-0-0-0-0-0-0-|----0-0-0-0-0-0-0-0-0-0-0-0-|


 1.
  
|-------------------------|-------||
|-------------------------|------o||
|-7-x-x-14-x-x-13-x-x-11--|-------||
|-------------------------|-------||
|-5-x-x-12-x-x-11-x-x--9--|------o||
|-0-0-0--0-0-0--0-0-0--0--|-------||


  2.
 
|---------------------|----------|
|---------------------|----------|
|-7-x-x-14-x-x-12-----|----------|
|---------------------|----------|
|-5-x-x-12-x-x-10-----|----------|
|-0-0-0--0-0-0--0-----|----------|


  
|----------------------------|------------------------------|
|----------------------------|------------------------------|
|-6-/7-7-7-7-7-7-7-7-7-7-7-7-|-7-x-x-13-14-14-13-x-x-14-x-x-|
|----------------------------|------------------------------|
|-4-/5-5-5-5-5-5-5-5-5-5-5-5-|-5-x-x-11-12-12-11-x-x-12-x-x-|
|----0-0-0-0-0-0-0-0-0-0-0-0-|-0-0-0--0--0--0--0-0-0--0-0-0-|



|-------------------------|-------------------------|
|-------------------------|-------------------------|
|-7-7-7-7-7-7-7-7-7-7-7-7-|-7-x-x-5-x-x-4-x-x-2-x-4-|
|-------------------------|-------------------2-x---|
|-5-5-5-5-5-5-5-5-5-5-5-5-|-5-x-x-3-x-x-2-x-x-0-x-2-|
|-0-0-0-0-0-0-0-0-0-0-0-0-|-0-0-0-0-0-0-0-0-0-0-0-0-|



|------------------------------|
|------------------------------|
|-4-/7-7-7-7-7-7-7-7-7-7-7-7---|
|------------------------------|
|-2-/5-5-5-5-5-5-5-5-5-5-5-5---|
|----0-0-0-0-0-0-0-0-0-0-0-0---|



|------------------------------------------|-------------------------------------------|
|------------------------------------------|-------------------------------------------|
|-7-14-14-14-14-14-14-14-14-14-14-14-14-14-|-14-14-14-14-14-14-14-14-14-14-14-14-14-14-|
|------------------------------------------|-------------------------------------------|
|-5-12-12-12-12-12-12-12-12-12-12-12-12-12-|-12-12-12-12-12-12-12-12-12-12-12-12-12-12-|
|-0--0--0--0--0--0--0--0--0--0--0--0--0--0-|--0--0--0--0--0--0--0--0--0--0--0--0--0--0-|



|--------------------------------------------|
|--------------------------------------------|
|-14-14-14-14-14-14-14-14-14-14-14-14-x------|
|--------------------------------------------|
|-12-12-12-12-12-12-12-12-12-12-12-12-x-0-0--|
|--0--0--0--0--0--0--0--0--0--0--0--0-0-0-0--|


 Interlude
|-----------------------|-----------------------------|
|-1--3-(3)-5-(5)--------|-----------------------2-3---|
|-------------------2-4-|-5-4-2-----2-----2-4-5-------|
|-2--4-(4)-5-(5)--------|-------5-4---5-4-------------|
|-0--0-(0)-0-(0)--------|-----------------------------|
|-----------------------|-----------------------------|


|-------------------------|
|-1--3-(3)-5--------------|
|-0--0-(0)-0--------------|
|-2--4-(4)-5---5-4-2------|
|-0--0-(0)-0---------5-4--|
|-------------------------|


|-------------------------------|----------------5-7-8-7-5-|
|-------------------------------|-1--3-(3)-5---8-----------|
|-------------------------4-5h7-|--------------------------|
|---5-4-2-----2-----4-5-7-------|-2--4-(4)-5---------------|
|---------5-3---5-4-------------|-0--0-(0)-0---------------|
|-------------------------------|--------------------------|



|-----5-----------------------------|
|-7-8---8-7-5---5-7-8-7-5-----------|
|-------------7-----------7-5-4-7---|
|-----------------------------------|
|-----------------------------------|
|-----------------------------------|



|---------------------------------|---------------------------------|
|---------------------------------|---------------------------------|
|-5-4-----------4-5-4-----------4-|-5-4-----------------------------|
|-----7-5-4-5-7-------7-5-4-5-7---|-----7-5-4-7-5-4-----------------|
|---------------------------------|-----------------7-5-3-0-7-5-3-0-|
|---------------------------------|---------------------------------|



|---2-----------------------------|-----------2-/3-7-7-/10-10-10-10-10-10-10-|
|-3-------------------------2-3-4-|-5-3-3-5-5--------------------------------|
|-----5-4-2-----0-4-5-2-4-5-------|------------------------------------------|
|-----------4-5-------------------|------------------------------------------|
|---------------------------------|------------------------------------------|
|---------------------------------|------------------------------------------|



|-10-7-8-9-10-7------7-----------------|--------------------------------7-8-|
|---------------8-10---8-10-7---7-8-10-|-8-7---------------------7-8-10-----|
|-----------------------------9--------|-----9-7-------------7-9------------|
|--------------------------------------|---------10-9-7-9-10----------------|
|--------------------------------------|------------------------------------|
|--------------------------------------|------------------------------------|



|-10-/12-12-10-8---------------8-10-x---12-8-|
|----------------12-10-8-10-12---------------|
|--------------------------------------------|
|--------------------------------------------|
|--------------------------------------------|
|--------------------------------------------|



|-10-12-10-8-------8---------------------|
|------------10-12---12-10-8-7-10-8-7----|
|-------------------------------0---0----|
|----------------------------------------|
|----------------------------------------|
|-------------------------------------0--|



|-------------------------|
|-1-x-3-3-x-5-5-5-5-5-5---|
|-------------------------|
|-2-x-4-4-x-5-5-5-5-5-5---|
|-0-0-0-0-0-0-0-0-0-0-0---|
|-------------------------|


|-7-8-7-5-----5-------------------|-------------------8-10-|
|---------7-8---8-7-5-------------|-1-x-3-3-5-5-5-5--------|
|---------------------7-5-4-4-----|------------------------|
|---------------------------0-----|-2-x-4-4-5-5-5-5--------|
|-----------------------------0-0-|-0-0-0-0-0-0-0-0--------|
|-----------------------------0-0-|------------------------|



|-12-8-10--------------------------|
|----------8-10-12-8-10-(10)-------|
|----------------------------0-----|
|----------------------------0-----|
|------------------------------0-0-|
|------------------------------0-0-|


|-------------------3-2-|-------------------------------|
|-1-3-3-x-5-5-3-1-------|-6-5-4-3-2---------------------|
|-----------------------|-----------5-4-2---------------|
|-2-4-4-x-5-5-4-2-------|-----------------5-4-2-----0---|
|-0-0-0-0-0-0-0-0-------|-----------------------5-3---0-|
|-----------------------|-------------------------------|


|-----------------------|-7-------------------------------|
|-1-x-3-3-x-5-3-3-x---7-|---10-7--------------------------|
|-------------------8---|--------9-7------7-5-------------|
|-2-x-4-4-x-5-4-4-x-----|------------10-7-----7-5---------|
|-0-0-0-0-0-0-0-0-0-----|-------------------------7-5-----|
|-----------------------|-----------------------------0-0-|


|-------------------------------|
|-1-1-3-3-x-5-------------------|
|-------------------------------|
|-2-2-4-4-x-5-------0-------5-7-|
|-0-0-0-0-0-0-------------------|
|-------------5-6-7---0-0-0-----|


|---------------------------------|--------------------------------|
|---------------------------------|-1-3-3-x-5-5-x-1-1-x-3----------|
|-7-5-----------------------------|--------------------------------|
|-----7-5-7---7-5-----------------|-2-4-4-x-5-5-x-2-2-x-4-5-5-7-7--|
|-----------7-----7-5-x-x-3p0-0-0-|-0-0-0-0-0-0-0-0-0-0-0-----0----|
|---------------------------------|--------------------------------|



|---------------------------------------|
|---------------------------------------|
|-7-5---------9-7-----------12-10-------|
|-----7-5-7-9-----9-7-10-12-------12-10-|
|---------------------------------------|
|---------------------------------------|


|---------------------------------------------|
|---------------------------------------------|
|-11-x-x-11-x-x-x-x-11-10-/11-11-------------|
|-10-x-x-10-x-x-x-x-10--9-/10-10----0--------|
|------0------0-0-0----------0----12----------|
|-------------0-0-0---------------12---/12-12-|



|-----------------------------------------|
|-----------------------------------------|
|-----------11-x-12-12-11-11-x-11-x-x-x-x-|
|----10-----10-x-12-12-10-10-x-10-x-x-x-x-|
|------------0----------0--0-0--0-0-0-0-0-|
|-12----0-0---------------------------0-0-|



|-------------------------------------------|
|-------------------------------------------|
|-11-11-x-11-x-x-x-x-11-11-11-11-x----------|
|-10-10-x-10-x-x-x-x-10-10-10-10-x-0--------|
|--0--0-0--0-0-0-0-0--0--0--0--0-0----------|
|----------------0-0-----------------/12-12-|



|-----------------------------------------|
|----------------12-x---------------------|
|-----------11-x-12-x-11-11-11-11---------|
|----10-----10-x-12-x-10-10-10-10---0-----|
|------------0-0--0-0--0--0--0--0-0-------|
|-12----0-0-----------------------0---5-6-|



|------------------------------------------|
|--------------------12-12-x---------------|
|--------------------12-12-x-10h11---------|
|---0----------------12-12-x----10---------|
|----------12-10-----------0-------0-0-----|
|-7---10---------0-0-------------------5-6-|


[ Tab from: http://www.guitartabs.cc/tabs/t/tim_reynolds_dave_matthews/stream_live_tab.html ]
|-------------------------------------------|
|-------------------------------------------|
|---------------------12-12-x-10h11---------|
|---0-----------------12-12-x----10---------|
|--------------10-------------------0-0-----|
|-7---10-11-12----0-0-------------------5-6-|



|--------------------------------------------|
|--------------------------------------------|
|---------------------12-12-x-10h11-x-0------|
|---0----------10-----12-12-x----10-x--------|
|--------------10-----------0----------------|
|-7---10-11-12----0-0-------------------5-6--|



|-------------------------------------------|
|-------------------------------------------|
|---------------------12-12-x-10h11---------|
|---0-----------------12-12-x----10---0-----|
|--------------10-----------0-------0-------|
|-7---10-11-12----0-0-------------------5-7-|



|-----------------------------------|
|-----------------------------------|
|-----------------7-7-x-5-----------|
|-----------3-----7-7-x-5---0-------|
|-5-0-----3-----------0---0---------|
|-----3-5-----0-0---------0---10-11-|



|-----------------------------------------|
|-----------------------------------------|
|------------------------10---------------|
|----10-------0----------10-------0-------|
|----10-0-0-0---------------0-0-0---------|
|-12----0-0-0---10-11-12----0-0-0---10-11-|



|------------------------------------------|
|------------------------------------------|
|----10---------------10-11-x-12-----------|
|----10-------0-------10-11-x-12---0-------|
|-------0-0-0------------------------------|
|-12----0-0-0---10-12------------0---10-11-|



|-----------------------------------------|
|-----------------------------------------|
|----10------------------10---------------|
|----10-------0----------10-------0-------|
|-----------------------------------------|
|-12----0-0-0---10-11-12----0-0-0---10-11-|



|--------------------------------------------|
|--------------------------------------------|
|-----------12-12-x-10-x-12---------10-------|
|----10-----12-12-x-10-x-12---------10-------|
|----10-----------0----0-------x-------------|
|-12----0-0-----------------10---12----10h12-|



|----------------------------------------|
|----------------------------------------|
|-x-10-------0----------10---------------|
|-x-10-------0----------10-------0-------|
|----------------------------------------|
|------0-0-0---10-11-12----0-0-0---10-11-|



|------------------------------------------|
|------------------------------------------|
|----10------------12-10-------------------|
|----10---------12-12-10-----------0-------|
|-------0-10h12-----0----0-0-0-0-0---------|
|-12----0----------------0-0-0-0-0---10-11-|



|-----------------------------------------|
|-----------------------------------------|
|----10------------------10---------------|
|----10-------0----------10-------0-------|
|-------0-0-0-----------------------------|
|-12----0-0-0---10-11-12----0-0-0---10-11-|



|------------------------------------------|
|------------------------------------------|
|----10-------------10---0-------10-10-----|
|----10-----12-12---10---0-------10-10---0-|
|-----------------0----0---------------0---|
|-12----0-0-------0----0---10h12-----------|



|-----------------------------------|-----------------------------------------|
|-----------------------------------|-----------------------------------------|
|---5-x-5-x-5-----------5-----------|------------------------------10---------|
|---5-x-5-x-5-------5---5---0-------|----10---10---0----------10---10---0-----|
|-----0---0-----------0---0---------|-------0----0---------------0----0-------|
|-7-----------5-6-7---0---0---10-11-|-12----0----0---10-11-12----0----0---5-6-|



|-----------------------------------|------------------------------------------|
|-----------------------------------|------------------------------------------|
|-----------------------------------|----10-----12-x-12-x-10-10-x-10-x-0-------|
|---5---5---0---0---5-0-5---0-------|----10-----12-x-12-x-10-10-x-10-x-0-------|
|---------0---------------0---------|---------------------------0----0---------|
|-7---0---0---5---7-------0---10-11-|-12----0-0--------------------------10h12-|



|-----------------------------------------|
|-----------------------------------------|
|--------------------10-10-x-10-----------|
|----10---0---0----0-10-10-x-10---0-------|
|--------------------------0----0---------|
|-12----0---9---10--------------0---10h12-|



|--------------------------------------|
|--------------------------------------|
|--------------------------------------|
|-10-10---0---x----x-------0---0-------|
|-------0------------x-x-x---0---------|
|-------0---9---10---x-x-x-------10h12-|



|-----------------------------------------|
|-----------------------------------------|
|--------------------10-10-x-10-----------|
|----10---0---x----0-10-10-x-10---0-------|
|--------------------------0----0---------|
|-12----0---9---10--------------0---10-11-|



|----------------------------------------|
|----------------------------------------|
|----10-x--------------12-x-10-10-x-x----|
|----10-x-0---x----0---12-x-10-10-x-x----|
|--------------------0----0-----0-0-0----|
|-12--------9---10---0----0-----------12-|



|------------12-x-x-10-x-x----------------|
|------------12-x-x-10-x-x----------------|
|------------12-x-x-10-x-x----------------|
|--------x-x------------------------------|
|--------x-x------------------------------|
|-12-12-12-x---------------9-10-11-12-0-0-|



|------------12-12-12-12-10------------------|
|------------12-12-12-12-10------------------|
|------------12-12-12-12-10-0----------------|
|--------x-x--------0-------0------------0-0-|
|----12-12-x-----------------------------0---|
|-12-12-12-x------------------9-10-11-12-----|


|-x-x-5-5-x-x-------------|-------------------------|--------------------------|
|-x-x-5-5-x-x-5-5-5-5-x-x-|-5-5-5-5-x-x-5-5-5-5-x-x-|-3-3-3-3-x-x-3-3-3-3-x-x--|
|-------------0-0-0-0-x-x-|-0-0-0-0-x-x-0-0-0-0-x-x-|-0-0-0-0-x-x-0-0-0-0-x-x--|
|-x-x-5-5-x-x-5-5-5-5-x-x-|-5-5-5-5-x-x-5-5-5-5-x-x-|-4-4-4-4-x-x-4-4-4-4-x-x--|
|-----0-0-0-0-0-0-0-0-0-0-|-0-0-0-0-x-x-0-0-0-0-x-x-|-0-0-0-0-x-x-0-0-0-0-x-x--|
|-------------------------|-------------------------|--------------------------|


|-------------------------|-------------------|-----------------|
|-3-3-3-3-x-x-3-3-3-3-x-x-|-5-5-5-5-5-5-5-5-5-|-5-5-5-5-5-5-5-5-|
|-0-0-0-0-0-x-0-0-0-0-x-x-|-0-0-0-0-0-0-0-0-0-|-0-0-0-0-0-0-0-0-|
|-4-4-4-4-4-x-4-4-4-4-x-x-|-5-5-5-5-5-5-5-5-5-|-5-5-5-5-5-5-5-5-|
|-0-0-0-0-x-x-0-0-0-0-x-x-|-0-0-0-0-0-0-0-0-0-|-0-0-0-0-0-0-0-0-|
|-------------------------|-------------------|-----------------|


|-----------------|-------------0-0-|-----------0-0-0-|
|-3-3-3-3-3-3-3-3-|-3-3-3-3-3-3-3-3-|-1-1-1-1-1-1-1-1-|
|-0-0-0-0-0-0-0-0-|-0-0-0-0-0-0-0-0-|-0-0-0-0-0-0-0-0-|
|-4-4-4-4-4-4-4-4-|-4-4-4-4-4-4-4-4-|-2-2-2-2-2-2-2-2-|
|-0-0-0-0-0-0-0-0-|-0-0-0-0-0-0-0-0-|-0-0-0-0-0-0-0-0-|
|-----------------|-----------------|-----------------|


|-----------------|-----------------|--------------|
|-1-1-1-1-1-1-1-1-|-1-1-1-1-1-1-1-1-|-1-1-1-1-1----|
|-0-0-0-0-0-0-0-0-|-0-0-0-0-0-0-0-0-|-0-0-0-0-0----|
|-2-2-2-2-2-2-2-2-|-2-2-2-2-2-2-2-2-|-2-2-2-2-2----|
|-0-0-0-0-0-0-0-0-|-0-0-0-0-0-0-0-0-|-0-0-0-0-0----|
|-----------------|-----------------|--------------|


|-------0---0-|-------0---0-|---0---0---0-|---0-----||
|---3-3---3---|---5-5---5---|-7-7-7---7---|-7-------||
|-1-------1---|-3-------3---|-5---5---5---|-5-------||
|-------------|-------------|-------------|-0-------||
|-------------|-------------|-------------|-----0---||
|-------------|-------------|-------------|-------0-||


 Guitar Break
|---()--()--()--|-()--()--()--()--|
|---()--()--()--|-()--()--()--()--|
|---()--()--()--|-()--()--()--()--|
|---------------------------|-----------------------------|
|---------------------------|-----------------------------|
|---------------------------|-----------------------------|


|-------------|------------------|------------|
|---------10--|-9----10-12-10-9--|-10---------|
|-------------|------------------|------------|
|-------------|------------------|------------|
|-------------|------------------|-------0----|
|-------------|------------------|-------0----|

|------------------|------------------------------------|
|------10--9----10-|-12-12pb13-12-12pb13-12b13r(12)-10--|
|------------------|------------------------------------|
|------------------|------------------------------------|
|-(0)--------------|------------------------------------|
|-(0)--------------|------------------------------------|


|--------------------|------------------------|-----------|
|-9----10-12-10-9-10-|-9b10r(9)-(9)-----------|-9----9----|
|--------------------|--------------11--9-----|-----------|
|--------------------|------------------------|-7----7----|
|--------------------|------------------------|-----------|
|--------------------|------------------------|-----------|



|-------------------------|-------------------------|------------------------|
|-------------------------|-------------------------|------------------------|
|-------------------------|-------------------------|-7-7-7---------6-7-7-7--|
|-------------------------|-----------4-------------|------------------------|
|-5-0-0-5-5-4-5-4-4-5-5-5-|-5-5-4-5-5-5-5-5-5-5-5-4-|-5-5-5-5-5-5-5-4-5-5-5--|
|-0-----0-----0-0-0-0-0-0-|-0-0-0-0-0-0-0-0-0-0-0---|-------0-0-0-0-0-0-0-0--|



|-----------------------------|
|-----------------------------|
|-6s7-7-7-7-7-7-7-7-7-7S12-12-|
|-----------------------------|
|-4s5-5-5-5-5-5-5-5-5-5S10-10-|
|-0---0-0-0-0-0-0-0-0-0-------|



|-------------------------------------|---------------------------|
|-------------------------------------|---------------------------|
|-12-12-12-12-12-12-12-12-11-11-x-7-7-|-7-7-7-7-7-7-7-7-7-7-7-7-7-|
|-------------------------------------|---------------------------|
|-10-10-10-10-10-10-10-10--9--9-x-5-5-|-5-5-5-5-5-5-5-5-5-5-5-5-5-|
|--0--0--0--0--0--0--0--0--0--0-0-0-0-|-0-0-0-0-0-0-0-0-0-0-0-0-0-|



|---------------------------------|---------------------------------------|
|---------------------------------|---------------------------------------|
|-6s7-7-7-7-7-7-x-7-7S14-14-14-14-|-14-14-14-14-12-12-12-12-11-x-12-12-12-|
|---------------------------------|---------------------------------------|
|-4s5-5-5-5-5-5-x-5-5S12-12-12-12-|-12-12-12-12-10-10-10-10--9-x-10-10-10-|
|-0---0-0-0-0-0-0-0-0--0--0--0--0-|--0--0--0--0--0--0--0--0--0-0--0--0--0-|



|------------------------------------|
|------------------------------------|
|-12-12-12-12-12-12-12-12-12-12-12-x-|
|------------------------------------|
|-10-10-10-10-10-10-10-10-10-10-10-x-|
|--0--0--0--0--0--0--0--0--0--0--0-0-|


|-------------|--------------|------------|---------------------------|
|-------------|--------------|------------|---------------------------|
|-------------|--------------|------------|-7-x-7-x-x-5-4-x-5-5-x-7---|
|----------7--|-(7)----------|----7-------|---------------------------|
|----0--5-----|-----------0--|-5----------|-5-x-5-x-x-3-2-x-3-3-x-5---|
|-0-----------|--------0-----|------------|-0-0-0-0-0-0-0-0-0-0-0-0---|



|--------------------------|-------------------------|
|--------------------------|-------------------------|
|-7-7-7-x-x-9-11-x-9-x-x-7-|-7-7-7-x-x-5-4-x-x-5-x-7-|
|--------------------------|-------------------------|
|-5-5-5-x-x-7--9-x-7-x-x-5-|-5-5-5-x-x-3-2-x-x-3-x-5-|
|-0-0-0-0-0-0--0-0-0-0-0-0-|-0-0-0-0-0-0-0-0-0-0-0-0-|



|-------------------------------|
|-------------------------------|
|-7-7-7-x-x-9-11-x-9-x-x-7-15---|
|-------------------------------|
|-5-5-5-x-x-7--9-x-7-x-x-5-14---|
|-0-0-0-0-0-0--0-0-0-0-0-0--0---|



|-------------------------------------------------|
|-------------------------------------------------|
|-15-15-15-15-15-16-16-16-16-16-16-16-16-16-16-16-|
|-------------------------------------------------|
|-14-14-14-14-14-14-14-14-14-14-14-14-14-14-14-14-|
|--0--0--0--0--0--0--0--0--0--0--0--0--0--0--0--0-|



|------------------------------------------------|
|------------------------------------------------|
|-15-15-15-15-15-15-15-15-15-15-15-15-15-15-15-x-|
|------------------------------------------------|
|-13-13-13-13-13-13-13-13-13-13-13-13-13-13-13-x-|
|--0--0--0--0--0--0--0--0--0--0--0--0--0--0--0-0-|



|-------------------------------------------------|
|-------------------------------------------------|
|-14-14-14-14-14-14-14-14-14-14-14-14-14-14-14-14-|
|-------------------------------------------------|
|-12-12-12-12-12-12-12-12-12-12-12-12-12-12-12-12-|
|--0--0--0--0--0--0--0--0--0--0--0--0--0--0--0--0-|



|-----------------------------------------------|
|-----------------------------------------------|
|-14-14-14-14-14-14-14-14-14-14-14-14-14-14-x-x-|
|-----------------------------------------------|
|-12-12-12-12-12-12-12-12-12-12-12-12-12-12-x-x-|
|--0--0--0--0--0--0--0--0--0--0--0--0--0--0-0-0-|



|------------------------------------------------|
|------------------------------------------------|
|-16-16-16-16-16-16-16-16-16-16-16-16-16-16-16-x-|
|------------------------------------------------|
|-14-14-14-14-14-14-14-14-14-14-14-14-14-14-14-x-|
|--0--0--0--0--0--0--0--0--0--0--0--0--0--0--0-0-|



|------------------------------------------------|
|------------------------------------------------|
|-15-15-15-15-15-15-15-15-15-15-15-15-15-15-15-x-|
|------------------------------------------------|
|-13-13-13-13-13-13-13-13-13-13-13-13-13-13-13-x-|
|--0--0--0--0--0--0--0--0--0--0--0--0--0--0--0-0-|



|-------------------------------------------------|
|-------------------------------------------------|
|-14-14-14-14-14-14-14-14-14-14-14-14-14-14-14-14-|
|-------------------------------------------------|
|-12-12-12-12-12-12-12-12-12-12-12-12-12-12-12-12-|
|--0--0--0--0--0--0--0--0--0--0--0--0--0--0--0--0-|



|-----------------------------------------------|
|-----------------------------------------------|
|-14-14-14-14-14-14-14-14-14-14-14-14-14-14-x-x-|
|-----------------------------------------------|
|-12-12-12-12-12-12-12-12-12-12-12-12-12-12-x-x-|
|--0--0--0--0--0--0--0--0--0--0--0--0--0--0-0-0-|



|----------------------------------------------|
|----------------------------------------------|
|-16-16-16-16-16-16-16-16-16-16-16-16-16-16-16-|
|----------------------------------------------|
|-14-14-14-14-14-14-14-14-14-14-14-14-14-14-14-|
|--0--0--0--0--0--0--0--0--0--0--0--0--0--0--0-|



|---------------------------------------|
|---------------------------------------|
|-15-15-15-15-15-15-15-15-15-15-15-x-x--|
|---------------------------------------|
|-13-13-13-13-13-13-13-13-13-13-13-x-x--|
|--0--0--0--0--0--0--0--0--0--0--0-0-0--|



|--------------------------------------------|
|--------------------------------------------|
|-14-14-14-14-14-14-14-14-14-14-14-14-14-x-x-|
|--------------------------------------------|
|-12-12-12-12-12-12-12-12-12-12-12-12-12-x-x-|
|--0--0--0--0--0--0--0--0--0--0--0--0--0-0-0-|



|--------------------------------------------|
|--------------------------------------------|
|-13-13-13-13-13-13-13-13-13-13-13-13-13-x-x-|
|--------------------------------------------|
|-11-11-11-11-11-11-11-11-11-11-11-11-11-x-x-|
|--0--0--0--0--0--0--0--0--0--0--0--0--0-0-0-|



|-------------------------------------------|
|-------------------------------------------|
|-12-12-12-12-12-12-12-12-12-12-12-12-12-12-|
|-------------------------------------------|
|-10-10-10-10-10-10-10-10-10-10-10-10-10-10-|
|--0--0--0--0--0--0--0--0--0--0--0--0--0--0-|



|----------------------------------------|
|----------------------------------------|
|-12-12-12-12-12-12-12-12-12-12-12-12-12-|
|----------------------------------------|
|-10-10-10-10-10-10-10-10-10-10-10-10-10-|
|--0--0--0--0--0--0--0--0--0--0--0--0--0-|



|-------------------------------------|
|-------------------------------------|
|-12-12-12-12-12-12-12-12-12-12-12-12-|
|-------------------------------------|
|-10-10-10-10-10-10-10-10-10-10-10-10-|
|--0--0--0--0--0--0--0--0--0--0--0--0-|


|--------------------------------|-^-0----*|
|--------------------------------|-^-0----*|
|-12-12-12-12-12-12-12-12-12-11--|-^11----*|
|--------------------------------|--------*|
|-10-10-10-10-10-10-10-10-10--9--|-^-9----*|
|--0--0--0--0--0--0--0--0--0--0--|-^-0----*|


nitin@bikerider.com
Comments