Tim Mcgraw - Truck Yeah Chords & Tabs

 

Truck Yeah Chords & Tabs

Tim Mcgraw Chords & Tabs

Version: 2 Type: Tab 0 ratings
1 star 2 stars 3 stars 4 stars 5 stars
comments

Truck Yeah Tab

   
e||------------------|-----------------|------------------|-----------------||
B||------------------|-----------------|------------------|-----------------||
G||------------------|-----------------|------------------|-----------------||
D||----7---6-5-3-0---|----7---6-3-5----|----7---6-5-3-0---|------30---------|| X2
A||--5---x-----------|--5---x---3-5----|--5---x-----------|--0350---30------||
D||------------------|----------3-5----|------------------|-----------6053--||

e||-----------------||------------------------|------------------------------|
B||-----------------||------------------------|------------------------------|
G||-----------------||------------------------|--5-7-------5-7---------------|
D||-00-0-0-0-0-0-35-||-00--00--00-------------|--5-7--3-5--5-7---------------|
A||-00-0-0-0-0-0-35-||-00--00--00-3p0---------|--3-5--3-5--7-5--3-2-0--------|
D||-00-0-0-0-0-0-35-||-00--00--00-----5p3h5p3-|-------3-5-------------5-3-20-|
      s s s s s s   X3   s   s

e|----------------------------|------------|----------------|----------------|
B|----------------------------|--------3---|----------------|----------------|
G|--5-7-------5-7-------------|------5-2---|----------------|----------------|
D|--5-7--3-5--5-7-------------|------5-0---|---7---6-5-3-0--|------30--------|
A|--3-5--3-5--3-5--3-2-0------|-3-5--3-0---|-5---x----------|--0350---30-----|
D|-------3-5-------------5-30-|-3-5----0---|----------------|-----------6053-|

e||-----------------||------------------------|------------------------------|
B||-----------------||------------------------|------------------------------|
G||-----------------||------------------------|--5-7-------5-7---------------|
D||-00-0-0-0-0-0-35-||-00--00--00-------------|--5-7--3-5--5-7---------------|
A||-00-0-0-0-0-0-35-||-00--00--00-3p0---------|--3-5--3-5--7-5--3-2-0--------|
D||-00-0-0-0-0-0-35-||-00--00--00-----5p3h5p3-|-------3-5-------------5-3-20-|
      s s s s s s   X3   s   s

e|---------------------------|------------||----------------|----------------|
B|---------------------------|--------3---||----------------|----------------|
G|-5-7-------5-7-------------|------5-2---||----------------|----------------|
D|-5-7--3-5--5-7-------------|------5-0---||--7-6-5---3-----|--7-6-5-3-5p3---|
A|-3-5--3-5--3-5--3-2-0------|-3-5--3-0---||-5-5-5--5---5p3-|-5-5-5--------5-|
D|------3-5-------------5-30-|-3-5----0---||----------------|----------------|
                                             ......           ......
[ Tab from: http://www.guitartabs.cc/tabs/t/tim_mcgraw/truck_yeah_tab_ver_2.html ]
e|-------------------|------------------||------------------------------------||
B|-------------------|------------------||------------------------------------||
G|-------------------|------------------||------------------------------------||
D|---7-6-5---3-------|------3-----------||------------------------------------||
A|--5-5-5--5---5p3---|--3-5---5---550---||------------------------------------||
D|-------------------|----------34550---||--0-0-000-0-0-000-0-0-000-0-0-000---||
    ......                              X2  PM--------------------------------|| X2

e|----------|--------------------------------|-------------------------------|
B|----------|--------------------------------|-------------------------------|
G|----------|--5-7-------5-7-----------------|--5-7-------5-7----------------|
D|----------|--5-7--3-5--5-7-----------------|--5-7--3-5--5-7----------------|
A|--3-0-5---|--3-5--3-5--3-5--3-2-0----------|--3-5--3-5--3-5--3-2-0---------|
D|--3-0-5---|-------3-5-------------5-3-20---|-------3-5-------------5-30----|






e|-----------------||------------------|----------------|--------------------|
B|------------3----||------------------|----------------|--------------------|
G|----------5-2----||------------------|----------------|--------------------|
D|----------5-0----||----7---6-5-3-0---|----7---6-3-5---|----7---6-5-3-0-----|
A|--3--5----3-0----||--5---x-----------|--5---x---3-5---|--5---x-------------|
D|--3--5------0----||------------------|----------3-5---|--------------------|

e|-----------------||------------------|----------------|--------------------|
B|-----------------||------------------|----------------|--------------------|
G|-----------------||------------------|----------------|--------------------|
D|------30---------||------------0-----|----------------|--0-----------------|
A|--0350---30------||---5-3------0-----|----------------|--0-----------------|
D|-----------6053--||---5-3------0-----|----------------|--0-----------------|
                   X2

************************************

| /   slide up
| \   slide down
| h   hammer-on
| p   pull-off
| ~   vibrato
| +   harmonic
| x   Mute note
| b   Bend
| pb  Pre-bend
| br  Bend release
| pbr Pre-bend release
| brb Bend release bend
| s   Silence Strings with edge of hand
| .   Staccato
| PM  Palm Mute

************************************

*First Tab, worked on this with my instructor, 
spacing may be off, not much out there so hope this helps
Comments