Tim Mcgraw - Indian Outlaw Chords & Tabs

 

Indian Outlaw Chords & Tabs

Tim Mcgraw Chords & Tabs

Version: 1 Type: Tab 0 ratings
1 star 2 stars 3 stars 4 stars 5 stars
comments

Indian Outlaw Tab

E---------------------------------------------
B---------------------------------------------
G--9--9\---5-3-5---4-2-4---2-0-2--2/4-2-0-----
D--9--9\---4-2-4---4-2-4---2-0-2---------2----
A--7--7\----------2-------0-------------------
E---------0-----------------------------------

E---------------------------------|
B---------------------------------|
G---5-3-5---4-2-4---2-0-2---------|
D---4-2-4---4-2-4---2-0-2--5b-2---|
A----------2-------0--------------|
E--0------------------------------|
[ Tab from: http://www.guitartabs.cc/tabs/t/tim_mcgraw/indian_outlaw_tab.html ]
Comments