Tim Mcgraw - Dont Take The Girl Chords & Tabs

 

Dont Take The Girl Chords & Tabs

Tim Mcgraw Chords & Tabs

Version: 1 Type: Tab 0 ratings
1 star 2 stars 3 stars 4 stars 5 stars
comments

Dont Take The Girl Tab

Tim McGraw - Dont take the Girl

this will sound prety bad if you don't get the timing right, but don't give up, just
listen to the song a few times
                                           	INTRO

		 E|-----------|----------------|---------------|------------7--|
		 B|-----------|----------------|---------------|----10-8-10-8--|
		 G|--5-5-5p4--|----5-5-5-5-4---|----5-5-5p4-7--|--7------------|
	      	 D|-----------|----------------|---------------|---------------|
		 A|-----------|---5------------|--5------------|---------------|
		 E|-----------|----------------|---------------|---------------|
                     
						VERSE

E|--8----8---8-p7--|------8--8---8---8--7-----|------8--8---8--p--7-----7---|------------7--|
B|-----------------|--------------------------|-------------------------8---|----10-8-10-8--|
G|-----------------|--7-----------------------|--7--------------------------|--7------------|
D|-----------------|--------------------------|-----------------------------|---------------|
A|-----------------|--------------------------|-----------------------------|---------------|
E|-----------------|--------------------------|-----------------------------|---------------|
1.  John nys daddy    was taking him fishing     when he was eight years old   
2.  Same ol' boy,     same  sweet   girl,        ten   years down  the   road
3.  Same ol' boy,     same  sweet   girl,        five  years down  the   road

E|----8------8---8p7--7----8--------7--------------|-----8-----8------8-p-7---7----|------------7--|
B|------------------------------------10----8------|--------------------------8----|----10-8-10-8--|
G|--7----------------------------------------------|--7----------------------------|--7------------|
D|-------------------------------------------------|-------------------------------|---------------|
A|-------------------------------------------------|-------------------------------|---------------|
E|-------------------------------------------------|-------------------------------|---------------|
1.  A lit   tle girl came through the front gate      holding  a     fishing pole
2.  He held her tight and kissed  her lips           in front  of the picture show.
3.  There's gonna be a little        one   and        she says It's  time to go.

E|----------------------------------------|------------------------------------------|-------------|
B|----------------------------------------|------------------------------------------|-------------|
G|--5-----5p4---4------5---4--------------|-------5-------5-----5--p--4---4---4------|----------4--|
D|--------------------------------7--5----|-----------------------------------5------|----7-5-7-5--|
A|----------------------------------------|--5---------------------------------------|--5----------|
E|----------------------------------------|------------------------------------------|-------------|
1.  His   dad  looked down and    smiled      Said We      can't leave her be  hind
2.  A stranger came    and pulled a gun       and  grabbed her   by  - y   the arm
3.  Doctor said The   ba  by's    fine        but  you'    ll    ha   ve   to  leave
[ Tab from: http://www.guitartabs.cc/tabs/t/tim_mcgraw/dont_take_the_girl_tab.html ]
E|---------------------------------------|------------------------------------|--------------------|
B|---------------------------------------|------------------------------------|--------------------|
G|---5--5--5-p-4----4-----5----4---------|-------5----5------5---p---4----4---|------5----4--------|
D|--------------------------------7--5---|--------------------------------5---|---------------7----|
A|-5-------------------------------------|--5---------------------------------|--5-----------------|
E|---------------------------------------|------------------------------------|--------------------|
1.  Son I know you don't want her to go     Someday   you'll change your mind    And Joh  nny said: 
2.  Said If you do what I tell you to     there won't be     an  -  ny   harm    And Joh  nny said
3.  `Cause his mama's fadin'      fast      and John  ny     hit    his  knees   And then he  prayed,


					     CHORUS


E|-------8--8--8-p-7----|---8---8--8--8---7----|---8---8--8--p--7-----7---|------------7--|
B|----------------------|----------------------|----------------------8---|----10-8-10-8--|
G|--7-------------------|----------------------|-7------------------------|--7------------|
D|----------------------|----------------------|--------------------------|---------------|
A|----------------------|----------------------|--------------------------|---------------|
E|----------------------|----------------------|--------------------------|---------------|
1.  Take Jimmy Johnson     take Tommy Tompson     Take my best friend Bo
2.  Take my    money,      take my    wallet      take my credit cards
3.  Take the   very        breath you gave me     take the heart from my chest 

E|-------8-----8------8p7-7---8---------7-------------|---------8----8--8----p7--7--7----|
B|--------------------------------------------10--8---|-----------------------------8----|
G|-7--------------------------------------------------|--7-------------------------------|
D|----------------------------------------------------|----------------------------------|
A|----------------------------------------------------|----------------------------------|
E|----------------------------------------------------|----------------------------------|
1.  Take an   ny      body    that      you   want       as     long as she don't  go
2.  Here's the watch that my grand      pa    gave me    here's the key to  my     car
3.  I'll glad ly     take her place if you'll have me    Make   this my last    request

E|-------8-8-8-p-7---7-------------|---------7---7-8-7--------|---7-----7-------------|
B|--------------------------10/12--|-------------------10-10--|-------------10---10---|
G|--7------------------------------|--7--7--------------------|-7---------------------|
D|---------------------------------|--------------------------|-----------------------|
A|---------------------------------|--------------------------|-----------------------|
E|---------------------------------|--------------------------|-----------------------|
1.  Take any boy  in the  world       Daddy  ple- e- e-ase       Don't take the girl
2.  Mr.      give it a    whirl       bu t   ple- e- e-ase       Don't take the girl
3.  Take me  out  of this world       Go d   ple- e- e-ase       Don't take the girl	

		E|--8-8-8p7-|----8-8-8-8-7--|----8-8-8p7-7(10)--|------------7--|
		B|----------|---------------|-------------------|----10-8-10-8--|
		G|----------|--7------------|--7----------------|--7------------|
		D|----------|---------------|-------------------|---------------|
		A|----------|---------------|-------------------|---------------|
		E|----------|---------------|-------------------|---------------|

			AFTER THIRD TIME THROUGH CHORUS FOLLOW THIS... 

		E|--8-8-8p7-|----8-8-8-8-7--|--8-8-8p7-|----8-8-8-8-7--|----8-8-8-p-7-7--|
		B|----------|---------------|----------|---------------|--------------8--|
		G|----------|--7------------|----------|--7------------|--7--------------|
		D|----------|---------------|----------|---------------|-----------------|
		A|----------|---------------|----------|---------------|-----------------|
		E|----------|---------------|----------|---------------|-----------------|
Comments