Tim Hughes - Here I Am To Worship Chords & Tabs

 

Here I Am To Worship Chords & Tabs

Tim Hughes Chords & Tabs

Version: 1 Type: Tab 0 ratings
1 star 2 stars 3 stars 4 stars 5 stars
comments

Here I Am To Worship Tab

   
----------------------------------------------------------------------------
-	           HERE I AM TO WORSHIP-Tim Hughes
-----------------------------------------------------------------------------
Tabbed by:rodney000
Email:sk8er4life.3@netzero.com

PS: i'm don't really skate that much.  i just got this free email adress from a friend 
does

Tuning:EADGBe

This is the lead part to a very well known worship song by Tim Hughes. This is the part 
people sing to.  The chords will be posted above it.  The words below it.  The bends and 
and stuff are optional, and then only if you have an electric guitar.  This does sound
beautiful on an acoustic too, though.

    D            A                 Em

e|-------------------------------------------------------------------------|
B|-------------------------------------------------------------------------|
G|--2----2---3---0-----0-----2-----3---3-2---0-----------------------------|
D|----------------------------------------------3--------------------------|
A|-------------------------------------------------------------------------|
E|-------------------------------------------------------------------------|
   Light of the world you stepped down into darkness
   Beauty   that made       this  heart  adore  you


   D         A           G

e|-------------------------------------------------------------------------|
B|-------------------------------------------------------------------------|
G|-2-2----3--0----0---2br--------------------------------------------------|
D|-----------------------3-------------------------------------------------|
A|-------------------------------------------------------------------------|
E|-------------------------------------------------------------------------|
   Opened my eyes let me see
 Hope of  a life spent w/you


   G               D                   A                      D
[ Tab from: http://www.guitartabs.cc/tabs/t/tim_hughes/here_i_am_to_worship_tab.html ]
e|-------------------------------------------------------------------------|
B|-------------------------------------------------------------------------|
G|------3--2-2--0--2--2----3----2-2--0--0---0----3----2-2--0--2---2--------|
D|-3-----------------------------------------------------------------------|
A|-------------------------------------------------------------------------|
E|-------------------------------------------------------------------------|
   So here i am to worship here i am to bow down here i am to say that
You're altogether lovely   alltogether  worthy   alltogether  wonder


   D       G

e|-------------------------------------------------------------------------|
B|-------------------------------------------------------------------------|
G|--2-----5----------------------------------------------------------------|
D|-----------3-------------------------------------------------------------|
A|-------------------------------------------------------------------------|
E|-------------------------------------------------------------------------|
   you're my God
   ful   to  me


   A               D      G        D

e|-------------------------------------------------------------------------|
B|-------------------------------------------------------------------------|
G|----------0--0--2----5---3----2--0---------------------------------------|
D|--3---3----------------------------3-------------------------------------|
A|-------------------------------------------------------------------------|
E|-------------------------------------------------------------------------|
   And I'll never know how much it cost


   A         D     G       D

e|-------------------------------------------------------------------------|
B|-------------------------------------------------------------------------|
G|-----0--0--2---5-3--2----------------------------------------------------|
D|-3-----------------------5\3---------------------------------------------|
A|-------------------------------------------------------------------------|
E|-------------------------------------------------------------------------|
   To see my sin upon that cross

I love this song it's beautiful.  Peace and God bless you.  Jesus loves you and so do i. 
Rock and reggae on forever.


| /  slide up
| \  slide down
| h  hammer-on
| p  pull-off
| ~  vibrato
| +  harmonic
| x  Mute note
============================================================================
Comments