Tim Christensen - Whispering At The Top Of My Lungs Chords & Tabs

 

Whispering At The Top Of My Lungs Chords & Tabs

Tim Christensen Chords & Tabs

Version: 1 Type: Tab 0 ratings
1 star 2 stars 3 stars 4 stars 5 stars
comments

Whispering At The Top Of My Lungs Tab

   
Artist: Tim Christensen
Album: Honeyburst
Song: Whispering At The Top Of My Lungs

I searched the net hoping to find this song, as the riff is so cool, but so far no one 
tabbed it. So I did instead.

Tabbed by Aske Saxe, Denmark
Frodo_baggins15@hotmail.com

Tuning: Drop D (D A D G B E)
Power chords
A	777xxx
D	x577xx
E	x799xx
F	x 8 10 10 xx
Gm	555xxx
Dm	x57765
#A 	888xxx

Main riff
E-----------------------------|------------------------------|
H-----------------------------|------------------------------|
G---1-11----1-1-1p0----------|------------------------------|
D---3-33----3--3----3--3-33---|---3-33-----------------------|
A-----------------------------|------------------------------|
E-0-------0----------0--------|-0----------------------------|

Verse riff
E-----------------------------|------------------------------|
H-----------------------------|------------------------------|
G---1-11----1-1-1p0----------|------------------------------|
D---3-33----3--3----3--3-33---|---3-33-----------------------|
A-----------------------------|------------------------------|
E-0-------0----------0--------|-0----------------------------|

E-----------------------------|------------------------------|
H-----------------------------|------------------------------|
G---1-11----1-1-1p0----------|------------------------------|
D---3-33----3--3----3--3-33---|---3-33-----------------------|
A-----------------------------|------------------------------|
E-3-------3----------3--------|-3----------------------------|

E-----------------------------|------------------------------|
H-----------------------------|------------------------------|
G-----------------------------|------------------------------|
D---6-66----6-66----6---6---6-|-6----------------------------|
A---8-88----8-88----8---8---8-|-8----------------------------|
E-8-------8-------8---7---6---|------------------------------|
[ Tab from: http://www.guitartabs.cc/tabs/t/tim_christensen/whispering_at_the_top_of_my_lungs_tab.html ]
E-----------------------------|------------------------------|
H-----------------------------|------------------------------|
G---1-11----1-1-1p0----------|------------------------------|
D---3-33----3--3----3--3-33---|---3-33-----------------------|
A-----------------------------|------------------------------|
E-0-------0----------0--------|-0----------------------------|

Intro, main riff x2

Verse riff
Close your eyes
Maybe someone will apologize
Maybe someday you will hear what I'm
Whispering at the top of my lungs

Ego cursed
I feel bad about not feeling worse
Come on kiss me on the honeyburst
Whispering at the top of my lungs
Whispering at the top of my lungs

Bridge - power chords
#A           A               Dm  F
Someday I'd like to forgive you
#A           A        Dm  F
Someday I'd like to regret
#A           A        Dm                 Gm
Someday I'd like to remember the good things
                 A
That I seem to forget

   #A                   A          Dm  F
I know that there's somebody out there
   #A                 A       Dm F
I know that they're having a blast
#A              A        Dm             Gm
And now that it's time to surrender to you dear
                     A
I find you here at last

Chorus - power chords
Gm    A
Easy love
    Gm      A
You cry my name
     Dm      A                  Dm
But drag no pain through my lullabies
Gm    A
Easy love
    Gm      A
You cry my name
     Dm      A                  Dm
But drag no pain through my lullabies
Gm    A        Dm
Easy love you don't cry
Gm    A        Dm
Easy love you don't cry

Verse riff
Baby please
Speak now or forever bite the leash
Don't you see that I am on my knees
Whispering at the top of my lungs

So close your eyes
Cause all is fine
Loneliness is just a state of mind
Whispering at the top of my lungs

Chorus - power chords
Gm    A
Easy love
    Gm      A
You cry my name
Gm    A        Dm
Easy love you don't cry
Comments