Tim Christensen - Time Is The Space Between Us Chords & Tabs

 

Time Is The Space Between Us Chords & Tabs

Tim Christensen Chords & Tabs

Version: 1 Type: Bass Tab 0 ratings
1 star 2 stars 3 stars 4 stars 5 stars
comments

Time Is The Space Between Us Bass Tab

   
Time is the space between us, bas tabs

English people I hope you do understand it all...

Grunden til at jeg har lavet "part a og b" er, at man ikke altid skal spille
de to parter lige mange gange.

g=glide/slide


Intro
G|-----------------|
D|-----------------|
A|-----------------|
E|--0---2---3------|

Denne del er udover at være intro også broen
(part a)                         (part b)
G|-------------------------|     |---------------| 
D|-------------------------|x2   |---------------|
A|-------------------------|     |---------------|
E|--4g5-5-5-5-8-6g7-7-7-7--|     |--4g3-3-3-3g2--|



Vers
(part a)                                   (part b)
G|-----------------------------------|     |--------------------------------|
D|-----------------------------------|x4   |-----------7-7-7-7-9-7-7-7-7-9--|
A|----7---7---7---7---6---6---6---6--|     |--------------------------------|
E|--8---8---8---8---7---7---7---7----|     |--5-5-6-6-----------------------|


[ Tab from: http://www.guitartabs.cc/tabs/t/tim_christensen/time_is_the_space_between_us_btab.html ]
Omkvæd (1. og 2.)
(part a)                                                                   (part b)
G|----------------------|                                                  |---------|
D|----------------------|x3(Man skal kun spille det 2 gange i 3. omkvæd)   |---------|
A|--2222----------------|                                                  |---------|
E|-------5555-33333333--|                                                  |--0---2--|

3. omkvæd er det samme som 1. og 2. omkvæd, indtil man har spillet "part a" 2 gange, 
spiller man:
G|--------------------------------------------------------------------------|
D|--------------------------------------------------------------------------|
A|--2222-3333-55555555--7-7-8-8-9-9-10-10-11-11-12-12-13-13-14-14-15-16-17--|
E|--------------------------------------------------------------------------|

4.omkvæd skal bassen først komme ind i anden runde a "part a"



Outro er det samme som første del af introen

Rækkefølge:

         Intro
1. og 2. vers
1.       Omkvæd
         Bro
3.       Vers (part b x2)
2. og 3. Omkvæd
         Bro (part a x4, men minus part b)
4.       Omkvæd
         Outro

laust_c@hotmail.com
Comments