Tim Christensen - Barbwired Babys Dream Chords & Tabs

 

Barbwired Babys Dream Chords & Tabs

Tim Christensen Chords & Tabs

Version: 2 Type: Chords 0 ratings
1 star 2 stars 3 stars 4 stars 5 stars
comments

Barbwired Babys Dream Chords

   
Hani A.A.

On the new dvd "live from Abbey Road"

Capo on 3rd fret!
Chords:

Am  - 002210
Fmaj7 - 003210
E1  - 023201
E2  - 020130
F1  - 133210
F2  - 033210
Dm  - 000231
E  - 022100


Am             Fmaj7
Lost inside a dream
E1                  E2
if you know what I mean
      Am                Am2    E1  E2
I am running round in circles


Am          Fmaj7
Misery was here
E1          E2
acted so sincere
          Am               Fmaj7  
now I'm running round in circles
         E1    E2
with a friend


F1  F2   Dm
I can't find you
E                       Am
where are you barbwired baby?
F1   F2   Dm
are you hiding?
Dm              Am       E        F1
please tell me what's inside a scream
F1      Am        E       Am
is it a barbwired baby's dream?


Am               Fmaj7
Sitting all the time
E1                  E2
tryin' to make you mine
         Am           Fmaj7   E1 E2
but I'm stoned for a moment


Am              Fmaj7
Diggin' in the moon
E1              E2
with a silver spoon
         Am           Fmaj7
yes I'm stoned for a moment
         E1   E2
with a friend

[ Tab from: http://www.guitartabs.cc/tabs/t/tim_christensen/barbwired_babys_dream_crd_ver_2.html ]
F1  F2   Dm
I can't find you
E                       Am
where are you barbwired baby?
F1   F2   Dm
are you hiding?
Dm              Am       E        F1
please tell me what's inside a scream
F1      Am        E       Am
is it a barbwired baby's dream?

Solo:
e|----------------|----------------|--2-------------|--2-------2-----| 
B|--1-------------|--1-------1-----|----------------|----------------| 
G|--2-------------|--2-------2-----|--2-------------|--2-------2-----| 
D|--2-------------|3-3-----2-2-----|1-1-------------|--1-------1-----| 
A|0---------------|----------------|--2-------------|2-2-------------| 
E|----------------|----------------|----------------|--------2-------| 

e|----------------|----------------| 
B|--3-------------|--3-------3-----| 
G|--1-------------|--1-------1-----| x 2
D|----------------|----------------| 
A|--2-------------|3-3-----2-2-----| 
E|1-0-------------|----------------|

Am

F1  F2   Dm
I can't find you
E                       Am
where are you barbwired baby?
F1   F2   Dm
are you hiding?
          Am         E    F1
but the objection's overruled
F2         Am    E        F1
why do I always play the fool?
F2              Am       E         F1
please tell me what's inside the screen
F2      Am        E    
is it a barbwired baby's dream?
Comments