Tijssen Rinaldo - Sweep Picking Chords & Tabs

 

Sweep Picking Chords & Tabs

Tijssen Rinaldo Chords & Tabs

Version: 1 Type: Tab 1 rating
1 star 2 stars 3 stars 4 stars 5 stars
comments

Sweep Picking Tab










#----------------------------------PLEASE NOTE--------------------------------#
#This file is the author's own work and represents their interpretation of the#
#song. You may only use this file for private study, scholarship, or research.#
#-----------------------------------------------------------------------------#
#-- File created with Instab - http://www.pconline.com/~smcarey/instab.html --#
#-----------------------------------------------------------------------------#

Author/Artist: rinaldo tijssen
Title: sweep picking 
Album: /
Transcribed by: rinaldo tijssen
Email: ritijs47@brunssum.net

----------------12-17p12------------------------------------------------------
-------------13----------13---------------------------------------------------
----------14----------------14------------------------------------------------
-------14----------------------14---------------------------------------------
-12h15----------------------------15-12---------------------------------------
------------------------------------------------------------------------------
                                                                              

------------8-12-17-12p8------------------------------------------------------
---------10------t-------10---------------------------------------------------
-------9--------------------9-------------------------------------------------
----10------------------------10----------------------------------------------
-12------------------------------12-------------------------------------------
------------------------------------------------------------------------------
                                                                              
[ Tab from: http://www.guitartabs.cc/tabs/t/tijssen_rinaldo/sweep_picking_tab.html ]
----------------12-17p12------------------------------------------------------
-------------15----------14---------------------------------------------------
----------15----------------14------------------------------------------------
-------15----------------------14---------------------------------------------
-12h16----------------------------16-12---------------------------------------
------------------------------------------------------------------------------
                                                                              

------------9-12-17-12p9------------------------------------------------------
---------10-------t------10---------------------------------------------------
-------9--------------------9-------------------------------------------------
----11------------------------11----------------------------------------------
-12------------------------------12-------------------------------------------
------------------------------------------------------------------------------
                                                                              

--------------------17-20-17--------------------------------------------------
-----------------17----------17-----------------------------------------------
--------------17----------------17--------------------------------------------
-----------19----------------------19-----------------------------------------
-------19-----------------------------19--------------------------------------
-17-20-----------------------------------20-17--------------------------------
                                                                              

-------------------15-19-15---------------------------------------------------
----------------15----------15------------------------------------------------
-------------16----------------16---------------------------------------------
----------17----------------------17------------------------------------------
-------17----------------------------17---------------------------------------
-15-19----------------------------------19-15---------------------------------
                                                                              

------------------------------------------------------------------------------
------------------------------------------------------------------------------
------------------------------------------------------------------------------
------------------------------------------------------------------------------
------------------------------------------------------------------------------
------------------------------------------------------------------------------
                                                                              



Comments