Tijssen Rinaldo - Arpeggio S Chords & Tabs

 

Arpeggio S Chords & Tabs

Tijssen Rinaldo Chords & Tabs

Version: 1 Type: Tab 0 ratings
1 star 2 stars 3 stars 4 stars 5 stars
comments

Arpeggio S Tab










#----------------------------------PLEASE NOTE--------------------------------#
#This file is the author's own work and represents their interpretation of the#
#song. You may only use this file for private study, scholarship, or research.#
#-----------------------------------------------------------------------------#
#-- File created with Instab - http://www.pconline.com/~smcarey/instab.html --#
#-----------------------------------------------------------------------------#

Author/Artist: rinaldo tijssen
Title: arpeggios
Album: /
Transcribed by: rinaldo tijssen
Email: ritijs47@brunssum.net

play these arpeggios with one upstroke and one 
downstroke. let then sound good, play first slowly.

-3-0-------0-5-2------2-7-3-------3-8-5-------5-10-7--------7-12-8----------|-
-----0---0------4---4-------5---5-------7---7--------8---8---------10----10-|-
-------0----------5-----------4-----------8------------7--------------9-----|-
----------------------------------------------------------------------------|-
----------------------------------------------------------------------------|-
----------------------------------------------------------------------------|-
                                                                              
[ Tab from: http://www.guitartabs.cc/tabs/t/tijssen_rinaldo/arpeggio_s_tab.html ]
-8-|-14-10----------10-15-12-----------12-17-14----------14-19-15-----------|-
---|-------12----12----------14-----14----------15----15----------17----17--|-
---|----------13----------------15-----------------14----------------18-----|-
---|------------------------------------------------------------------------|-
---|------------------------------------------------------------------------|-
---|------------------------------------------------------------------------|-
                                                                              

-15-|-20-17-----------17-22-19-----------19-|-24----------------------------|-
----|-------18-----18----------21-----21----|-------------------------------|-
----|-----------17----------------22--------|-------------------------------|-
----|---------------------------------------|-------------------------------|-
----|---------------------------------------|-------------------------------|-
----|---------------------------------------|-------------------------------|-
                                                                              

-------1-4p1-------1-4p1---------4-7p4--------4-7p4-----------7-10p7-------7--
-----3-------3---3-------3-----6--------6---6--------6------9--------9---9----
-1h4-----------4------------4h7-----------7------------7h10------------10-----
------------------------------------------------------------------------------
------------------------------------------------------------------------------
------------------------------------------------------------------------------
                                                                              

-10p7-------|
------9-----|
---------10-|
------------|
------------|
------------|
                                                                              



Comments