Tihuana - Uma Noite Chords & Tabs

 

Uma Noite Chords & Tabs

Tihuana Chords & Tabs

Version: 1 Type: Bass Tab

Uma Noite Bass Tab

   
Tihuana 
Uma Noite 
Key: Em   
[ Tab from: http://www.guitartabs.cc/tabs/t/tihuana/uma_noite_btab.html ]
Intro
G|---------------------------------------------------| 
D|---------------------------------------------------| 
A|---10--8-6-6--10----6-8----10--8-6-6---------------| 
E|7-----------------------7--------------------------| 
 
Verse 1:
G|---------------------------------------------------| 
D|---------------------------------------------------| 
A|---10--8-6-6--10--8-6-6----10--8-6-6--10-10--------| 
E|7-----------------------7--------------------------| 
 
G|---------------------------------------------------| 
D|---------------------------------------------------| 
A|10---10--8-6-6--10--8-6----10--8-6-6--10-10--------| 
E|--7---------------------7--------------------------| 
 
VERSE:
G|----------------------------| 
D|----------------------------| 
A|3-3-3/9-9---5-5-5-5--7-7-7-7|  3x  
E|----------------------------| 
 
G|----------------------------| 
D|----------------------------| 
A|3-3-3/9-9---5~--7~----------| 
E|----------------------------| 
 
When guitar solo begins, bass not played. 
G|---------------------------------------------------| 
D|---------------------------------------------------| 
A|---10--8-6-6--10----8-6-0--10--8-6-6--10-10--8h10--| 
E|7--------------------------------------------------| 
 
G|---------------------------------------------------| 
D|---------------------------------------------------| 
A|---10--8-6-6--10----8h6p8-0--10--8-6-6/------------| 
E|7--------------------------------------------------| 
 
Verse 2:
G|---------------------------------------------------| 
D|---------------------------------------------------| 
A|---10--8-6-6--10--8-6-6----10--8-6-6--10-10--------| 
E|7-----------------------7--------------------------| 
 
G|---------------------------------------------------| 
D|---------------------------------------------------| 
A|6h8----10--8-6-6--10--8-6----10--8-6-6--10-10------| 
E|----7---------------------7------------------------| 
 
G|---------------------------------------------------| 
D|---------------------------------------------------| 
A|6h8----10--8-6-6--10--8-6-6----10--8-6-6--10-10----| 2x 
E|----7-----------------------7----------------------| 
 
VERSE: 
G|----------------------------| 
D|----------------------------| 
A|3-3-3/9-9---5-5-5-5--7-7-7-7|  7x  
E|----------------------------| 
 
G|----------------------------| 
D|----------------------------| 
A|3-3-3/9-9---5~--7~----------| 
E|----------------------------| 
 
This is one of the very little number of songs in bass I know how to play.
Enjoy it.
VIVA CIGARRILLO!!