Tigers Jaw - Thank You Noah Lowry Chords & Tabs

 

Thank You Noah Lowry Chords & Tabs

Tigers Jaw Chords & Tabs

Version: 1 Type: Tab 0 ratings
1 star 2 stars 3 stars 4 stars 5 stars
comments

Thank You Noah Lowry Tab

-----------------------------------------------------------------------------
		             THANK YOU, NOAH LOWRY - Tigers Jaw
-----------------------------------------------------------------------------
Tabbed by: Mean Mr Mustard
Email: Gotchristo@comcast.net

Tuning: Standard

Okay there's not much to this song so I figured I'd give it a shot in tab 
form. Theres two guitars throughout, so they're stacked on top of each other
and should stay in sinc together for the most part.

INTRO: 2x
e|-----------3---------|--|----------------|--|
B|-----3----------5----|--|--------5-------|--|
G|-4h5----5------------|x2|-----------5----|x2|
D|---------------------|--|-3--2h3---------|--|
A|---------------------|--|----------------|--|
E|---------------------|--|----------------|--|
 |
 |
e|---------------------|--|------------------|--|
B|---------------------|--|------------------|--|
G|----5--5-xx-5-5-5-xx-|x2|------------------|x2|
D|----5--5-xx-5-5-5-xx-|--|3-3-3-xx-3-3-3-xx-|--|
A|----3--3-xx-3-3-3-xx-|--|3-3-3-xx-3-3-3-xx-|--|
E|---------------------|--|1-1-1-xx-1-1-1-xx-|--|

[ Tab from: http://www.guitartabs.cc/tabs/t/tigers_jaw/thank_you_noah_lowry_tab.html ]
PRE-VERSE: 4x
e|-------------------------|
B|-------------------------|
G|-5---7-5---9-5---10-9999-|
D|-x---x-x---x-x---x--xxxx-|
A|-3---5-3---7-3---8--7777-|
E|-------------------------|
 |
 |
e|-------------------------|
B|-------------------------|
G|-5---5-5---5-5---5-2222--|
D|-5---5-5---5-5---5-2222--|
A|-3---3-3---3-3---3-0000--|
E|-------------------------|


VERSE: 2x                        1st Ending         2nd Ending
e|------------------------------|------------------|----------------------|
B|------------------------------|5-~-(---6h5)------|5----8888888866665555-|
G|-9^^--10h9-------9/7---777/5--|5-~-(5-----)(x2)--|5----5555555555555555-|
D|----------10--10--------------|------------------|----------------------|
A|------------------------------|------------------|----------------------|
E|------------------------------|------------------|----------------------|
 |
 |
e|------------------------------|------------0-----|----------------------|
B|------------------------------|---------------1--|----------------------|
G|-2----------------------------|5-----------------|5----5555555555555555-|
D|-2-------------3--------------|5-----------------|5----5555555555555555-|
A|-0-------------3--------------|3-----------------|3----3333333333333333-|
E|---------------1--------------|------------------|----------------------|

Now back to the PRE-VERSE: 8x

And then the OUTRO: 1x
e|-----------3------|
B|-----3---------5--|
G|-4h5----5---------|
D|------------------|
A|------------------|
E|------------------|
 |
 |
e|------------------|
B|------------------|
G|------------------|
D|-----------7---3--|
A|-----------7---3--|
E|-----------5---1--|
Comments