Tigers Jaw - Plane Vs Tank Vs Submarine Chords & Tabs

 

Plane Vs Tank Vs Submarine Chords & Tabs

Tigers Jaw Chords & Tabs

Version: 2 Type: Tab 0 ratings
1 star 2 stars 3 stars 4 stars 5 stars
comments

Plane Vs Tank Vs Submarine Tab

   
-------------------------------------------------------------------------------
                             PLANE vs TANK vs SUBMARINE - Tigers Jaw
-------------------------------------------------------------------------------
Tabbed by: mkunz16

Tuning: Standard

"Now I can't even stand on my own..."
[ Tab from: http://www.guitartabs.cc/tabs/t/tigers_jaw/plane_vs_tank_vs_submarine_tab_ver_2.html ]
  *CLEAN*
e|---------------------------------------------------------------------------|
B|-----8--------------------------------------------8-8/10---8-8-------------|
G|-7/9---9-7/5--5--7/9--7/5---5-------------5-7-7/9----------5-5-------------|
D|-------------7--7---------7---7-7p5---5h7----------------------------------|
A|---------------------------------------------------------------------------|
E|---------------------------------------------------------------------------|
                       *DISTORTION*
e|---------------------------------------------------------------------------|
B|-8-8-8-----------------------8-5--------5---6-5----------------------------|
G|-5-5-5-9--9-10-9-7-5--------5---------5---5-----7-5----7/9-7-7/9---5-------|
D|----------------------3-3----------------------------------------7---------|
A|----------------------3-3--------------------------------------------------|
E|----------------------1-1--------------------------------------------------|
 |NOT SURE ABOUT THIS PART|
e|---------------------------------------------------------------------------|
B|-----------5--8-6-5--------------------------------------------------------|
G|-----5h7p7-5--5-5-5--------2/5-7-5-7/9--7/5-/9-7-9---5h7p5--5-7------------|
D|--5h7---------------5-5----------------------------7-----------------------|
A|---------------------------------------------------------------------------|
E|---------------------------------------------------------------------------|

e|-------------------------------------------10------------------------------|
B|----------------------------------8----8/10--10-8--------------------------|
G|--7/9-7-7/9-7-7/9--5-----5h7p5-7/9----------------10-9-7-5-7-9-------------|
D|------------------7---5h7--------------------------------------------------|
A|---------------------------------------------------------------------------|
E|---------------------------------------------------------------------------|

e|---------------------------------------------------------------------------|
B|---------------------------------------------------------------------------|
G|-10----7-9-10-9-10/12----12-12--7----------5h7p5-7b-5----------------------|
D|----10-------------------10-10----10-7--5h7-----------7-5------------------|
A|---------------------------------------------------------------------------|
E|---------------------------------------------------------------------------|

e|------------------------------------------------------------------------------|
B|------------------------------------------------------------------------------|
G|--2/5-7-5-7/9--7-5---7/9------------------------------------------------------|
D|-------------------5----------------------------------------------------------|
A|------------------------------------------------------------------------------|
E|------------------------------------------------------------------------------|


************************************

| /   slide up
| \   slide down
| h   hammer-on
| p   pull-off
| ~   vibrato
| +   harmonic
| x   Mute note
| b   Bend
| pb  Pre-bend
| br  Bend release
| pbr Pre-bend release
| brb Bend release bend

************************************
Comments