Tiger Army - Under Saturns Shadow Chords & Tabs

 

Under Saturns Shadow Chords & Tabs

Tiger Army Chords & Tabs

Version: 2 Type: Tab 0 ratings
1 star 2 stars 3 stars 4 stars 5 stars
comments

Under Saturns Shadow Tab

   
UNDER SATURN'S SHADOW----Tiger Army

h = hammer on
/ = slide into
\ = slide out of
x = muted
" "* = played extremely fast
INTRO
                                                                   x4
e|----|--------------------------------------------------------------|
B|----|--------------------------------------------------------------|
G|----|--------------------------------------------------------------|
D|----|--------------------------------------------------------------|
A|----|------------------------------1010-9--------------------------|
E|-19\|000000007023057--88888888-1010----10--------------------------|
                        x4
e|-----------------------|
B|-----------------------|
G|-000000000000--/7\-----|
D|-222222222222--/7\-----|
A|-222222222222--/5\-----|
E|-000000000000----------|

PRE-VERSE
                                                             x2
e|-00000000-22332-3333333333333-2222222222222-33333333-22222------|
B|-00000000-00000-1111111111111-3333333333333-11111111-33333------|
G|----------------------------------------------------------------|
D|----------------------------------------------------------------|
A|----------------------------------------------------------------|
E|----------------------------------------------------------------|

   ^riff A^

VERSE:


   (repeat the previous riff 4 times)

[ Tab from: http://www.guitartabs.cc/tabs/t/tiger_army/under_saturns_shadow_tab_ver_2.html ]
CHORUS
                               x2
e|-333333-555555-333333-555555-|
B|-333333-777777-555555-777777-|
G|-444444-777777-555555-777777-|
D|-555555-777777-555555-777777-|
A|-555555-555555-333333-555555-|
e|-333333-555555-333333-555555-|


CHORUS pt.II
 This is being played while the chorus is being played.           x2
e|--3-----------------------3----------2---------------------------|
B|--0-----------------------5----------3---------------------------|
G|--4--------------3*h4-----5----------x---------------------------|
D|--5----------4-7-----7-5--5----------4---------------------------|
A|--2--------5--------------3----------5---------------------------|
E|--3-----------------------3--------------------------------------|
    ^whole                  ^whole     ^whole

BRIDGE:


 (riff A) played x6



OUTRO                                               let ring
                                                   |______|  
e|-0----2-3-2-3-----------2-3-5--------3-2*-3-2-3--3-3-------2-----------|
B|-0----3-1-3-1------2h3----------------------------1-1-1/3---3--5-------|
G|---------------------------------------------------------------4-------|
D|-----------------------------------------------------------------------|
A|-----------------------------------------------------------------------|
E|-----------------------------------------------------------------------|
                                                                 ^hold and
                                                                      fade



IN ORDER:

Intro
pre verse
verse
chorus
pre verse
verse
chorus
chorus pt.II (with the chorus playing in backround)
bridge
outro



Hope you like it!


tabbed by-Keegan C.
Comments