Tiger Army - Under Saturns Shadow Chords & Tabs

 

Under Saturns Shadow Chords & Tabs

Tiger Army Chords & Tabs

Version: 1 Type: Tab 0 ratings
1 star 2 stars 3 stars 4 stars 5 stars
comments

Under Saturns Shadow Tab

------------------------------------------------------------------------------- 
                        Under Saturn's Shadow - Tiger Army 
------------------------------------------------------------------------------- 

By: Chris Clifton 

e|---------------------------------------------------------------------------| 
B|---------------------------------------------------------------------------| 
G|--------------------------------------5-5-5--5-5-5--5-5-5------------------| 
D|--------------------------------------5-5-5--5-5-5--5-5-5------------------| 
A|--------------------------------------3-3-3--3-3-3--5-5-5------------------| 
E|12/15--0-0-0-0-0-0-0-7-0-0-5-0-0-3-0---------------------------------------| 

^^That's the Intro, play it twice. Don't do the slide on the 2nd time.^^ 
[ Tab from: http://www.guitartabs.cc/tabs/t/tiger_army/under_saturns_shadow_tab.html ]
e|---------------------------------------------------------------------------| 
B|-5-5-5-5-5-5--7-8-7--8-8-8-8-8-8-8-8--7-7-7-7-7-7-7-7--8-8-8-8-8--7-7-7-7-7| 
G|-4-4-4-4-4-4--5-5-5--6-6-6-6-6-6-6-6--5-5-5-5-5-5-5-5--8-8-8-8-8--7-7-7-7-7| 
D|---------------------------------------------------------------------------| 
A|---------------------------------------------------------------------------| 
E|---------------------------------------------------------------------------| 

^^That's the Verse, you're going to be playing that for most of the song, 
listen to the song to get the number of times you need to play this. ^^ 


Yeah, I don't know the chorus off the top of my head so maybe I'll 
put it up sometime...In the meantime learn this. The second part to 
the verse is a fairly hard reach. Speed. That is the key to the 
verse. Just listen to the song and play it. Period. It's not too 
complicated. Never Die.
Comments