Tiger Army - Towards Destiny Chords & Tabs

 

Towards Destiny Chords & Tabs

Tiger Army Chords & Tabs

Version: 1 Type: Bass Tab 0 ratings
1 star 2 stars 3 stars 4 stars 5 stars
comments

Towards Destiny Bass Tab

   
------------------------------------------------------------------------------- 
                        TOWARDS DESTINY - Tiger Army 
------------------------------------------------------------------------------- 

This is the Tiger Army song "Towards Destiny".. It kicks ass.. People should 
tab more Tiger Army stuff.. Geoff has some great basslines on that upright bass 
of his.. 

INTRO 
G|----------------------------------------------------------------- 
D|----------------------------------------------------------------- 
A|------------------------33333-----------------------3------------ 
E|-0-2-0-2-0-2333-0-2-0-2-------0-2-0-2-0-2333-0-2-0-2-3----------- 

Chorus (Towards Destiny.......) Repeat this 4 times 
G|------------------- 
D|------------------- 
A|------5555-22222222 
E|-2222-------------- 

Prelude to verse 
G|---------------------------------------------------------------- 
D|---------------------------------------------------------------- 
A|---------------------------------------------------------------- 
E|-0-2-0-2-0-2333-0-2-0-2-0-2333-0-2-0-2-0-2333-0-2-0-2-0-2333---- 

Portion which has some weird talking.. Sounds like he's speaking backwards 
Repeat this part 4 times 
G|-------------------------------- 
D|-------------------------------- 
A|-------------------------3-3-3-3 
E|-2-2-2-2-2-2-2-2-0-0-0-0-------- 
[ Tab from: http://www.guitartabs.cc/tabs/t/tiger_army/towards_destiny_btab.html ]
Verse (LETS GO!) Repeat this 4 times 
G|-------------------------------- 
D|-------------------------------- 
A|-------------------------3-3-3-3 
E|-2-2-2-2-2-2-2-2-0-0-0-0-------- 

Bass line shortly after guitar solo 
(I usually just do pull-offs everytime I finish hitting the 2nd Fret..) 
Repeat that bottom line twice 
G|-------------------- 
D|-------------------- 
A|-------------------- 
E|-2-2-2-2-2-2-2-2-2-2 

After... 
Repeat this 4 times.. 
G|-------- 
D|-------2 
A|---4---- 
E|-2---5-- 

Go back to intro (FOREVER!!!!!!!!!!!! THATS WHERE WE'LL BE!" 
G|----------------------------------------------------------------- 
D|----------------------------------------------------------------- 
A|------------------------33333-----------------------3------------ 
E|-0-2-0-2-0-2333-0-2-0-2-------0-2-0-2-0-2333-0-2-0-2-3----------- 

back to chorus (4x) 
G|------------------- 
D|------------------- 
A|------5555-22222222 
E|-2222-------------- 

And now.. the end... 
G|---------------------------------------------------------------- 
D|---------------------------------------------------------------- 
A|---------------------------------------------------------------- 
E|-0-2-0-2-0-2333-0-2-0-2-0-2333-0-2-0-2-0-2333-0-2-0-2-0-2333---- 

G|-------------------- 
D|-------------------- 
A|-------------------- 
E|-2-2-2-2-2-2-2-2-2-2 

That is all.. 
TIGER ARMY NEVER DIE 
They fuckin own all.. Did I fuck up Geoff's line? If so, send all hate mail and 
bad mouth my mom to SOYBOMB@bestweb.net 
-Marcus 

-------------------------------------------------------------------------------
Comments