Tiger Army - Santa Carla Chords & Tabs

 

Santa Carla Chords & Tabs

Tiger Army Chords & Tabs

Version: 1 Type: Tab 0 ratings
1 star 2 stars 3 stars 4 stars 5 stars
comments

Santa Carla Tab

   
----------------------------------------------------------------------------
			     SANTA CARLA- Tiger Army
----------------------------------------------------------------------------
Tabbed by:Nutters
Tuning:standard


Main Riff:

   Amin  C       Fmaj  Gmaj
   PM PM         PM PM PM PM
e|-5--5----------1--1--3--3-----------------------------------------------|
B|-5--5------0---1--1--3--3-----------------------------------------------|
G|-5--5----0-----2--2--4--4-----------------------------------------------|
D|-7--7----------3--3--5--5-----------------------------------------------|
A|-7--7--3-------3--3--5--5-----------------------------------------------|
E|-5--5----------1--1--3--3-----------------------------------------------|

After Verse
e|-5--3-3-3--------------5------------------------------------------------|
B|-5--3-3-3--------------5------------------------------------------------|
G|-5--4-4-4---------3X---5------------------------------------------------|
D|-7--5-5-5--------------7------------------------------------------------|
A|-7--5-5-5--------------7------------------------------------------------|
E|-5--3-3-3--------------5------------------------------------------------|

Back to Main Riffs

Then...
e|-5--5--5--5--5--5--5--5------0-3-0-3--5-3-5-3-------8---8---8---8-------|
B|-5--5--5--5--5--5--5--5------1-0-1-0--5-3-5-3-------8---8---8---8-------|
G|-5--5--5--5--5--5--5--5------2-0-2-0--5-4-5-4-------9---9---9---9-------|
D|-7--7--7--7--7--7--7--7------2-0-2-0--7-5-7-5-(2X)--10--10--10--10------|
A|-7--7--7--7--7--7--7--7------3-2-3-2--7-5-7-5-------10--10--10--10------|
E|-5--5--5--5--5--5--5--5---------------5-3-5-3-------8---8---8---8-------|
[ Tab from: http://www.guitartabs.cc/tabs/t/tiger_army/santa_carla_tab.html ]
                          (individual strums)
e|-5-5-3-3--8--8--8---8----1-1-1-1-1-1-1-1-3------------------------------|
B|-5-5-3-3--8--8--8---8----1-1-1-1-1-1-1-1-3--in-Santa Carla--------------|
G|-5-5-4-4--9--9--9---9----2-2-2-2-2-2-2-2-4------------------------------|
D|-7-7-5-5--10-10-10--10---3-3-3-3-3-3-3-3-5------------------------------|
A|-7-7-5-5--10-10-10--10---3-3-3-3-3-3-3-3-5------------------------------|
E|-5-5-3-3--8--8--8---8----1-1-1-1-1-1-1-1-3------------------------------|

2 Main Riffs

Solo
---------------------------------------------------------------------------
---------------------------------------------------------------------------
------------------------------------------------------0--------------------
---------2--2-2-3-3/5-3-2--------------------2-2-2-2-3-3-2-----------------
5-3-2-0------3------------3-3---3/5-3-2-3-2-0-0---3--------3-3---5-3-2-3-2-
-------------------------1-1-1-1-----------3--------------1-1-1-1---------3


e|--------------------------------------------------------------1--1--3--3|
B|-1--0-0---1--0-0---5----0---0----1---1--1p0---0------1--0-0---1--1--3--3|
G|--2--2-2---2--2-2---5--------------2--------2---2-----2--2-2--2--2--4--4|
D|---3--------3--------7----3---3------------------------3------3--3--5--5|
A|--------------------------------------------------------------3--3--5--5|
E|1-------------------------------------------------------------1--1--3--3|

Back to Main Riffs

e|------------------------------------------------5--5-----------5--------|
B|------------------------------------------------5--5----0------5--------|
G|------------------------------------------------5--5---0-0-----5--------|
D|-----------7-9-10-9---4X------------------------7--7-----------7--------|
A|------------------------------------------------7--7--3---3----7--------|
E|-5-7-8-7---------------------3-5-6-5---1-3-4-3--5--5-----------5--------|

============================================================================
Comments