Tiger Army - Prelude Nightfall Chords & Tabs

 

Prelude Nightfall Chords & Tabs

Tiger Army Chords & Tabs

Version: 1 Type: Bass Tab 0 ratings
1 star 2 stars 3 stars 4 stars 5 stars
comments

Prelude Nightfall Bass Tab

------------------------------------------------------------------------------- 
                       PRELUDE: NIGHTFALL - Tiger Army 
------------------------------------------------------------------------------- 

Slow Part: 
G-------6-----------------------6--------------------------------------------- 
D-4--5-----5--4-----------4--5-----5--4--------------10--9--8--7--6--5-------- 
A----------------5--4--5-----------------5--4--5--3---------------------3----- 
E----------------------------------------------------------------------------- 

TIGER ARMY NEVER DIES!!!!!!!!!!!!!!!! 
G------------------------------------------------ 
D-4-----4-----4-----4-----4-----4-----4-----4---- 
A----4-----4-----4-----4-----4-----4-----4-----4- 
E------------------------------------------------ 

G------------------------------------------------ 
D----2--3--5-----2--3--5-----2--3--5-----2--3--5- 
A-3-----------3-----------3-----------3---------- 
E------------------------------------------------ 

G------------------------------------------------ 
D-4-----4-----4-----4-----4-----4-----4-----4---- 
A----4-----4-----4-----4-----4-----4-----4-----4- 
E------------------------------------------------ 

G------------------------------------------------ 
D----2--3--5-----2--3--5-----2--3--5-----2--3--5- 
A-3-----------3-----------3-----------3---------- 
E------------------------------------------------ 

G------------------------------------------------ 
D----1--2--1--4--3--2--1-----2--3--5-----2--3--5- 
A-2-----------------------3-----------3---------- 
E------------------------------------------------ 

G------------------------------ 
D----1--2--1--4--3--2--1------- 
A-2----------------------3----- 
E------------------------------ 

G------------------------------------------------ 
D----1--2--1--4--3--2--1-----2--3--5-----2--3--5- 
A-2-----------------------3-----------3---------- 
E------------------------------------------------ 
[ Tab from: http://www.guitartabs.cc/tabs/t/tiger_army/prelude_nightfall_btab.html ]
G-------------------------------------------------------------- 
D----1--2--1--4--3--2--1- TAPITY TAPITY TAP! TAPITY TAPITY TAP! 
A-2------------------------------------------------------------ 
E-------------------------------------------------------------- 

G------------------------------------------------ 
D-4-----4-----4-----4-----4-----4-----4-----4---- 
A----4-----4-----4-----4-----4-----4-----4-----4- 
E------------------------------------------------ 

G-------------------------------------4--3--2--1- 
D----2--3--5-----2--3--5-----2--3--5------------- 
A-3-----------3-----------3---------------------- 
E------------------------------------------------ 

G------------------------------------------------ 
D-4-----4-----4-----4-----4-----4-----4-----4---- 
A----4-----4-----4-----4-----4-----4-----4-----4- 
E------------------------------------------------ 

G------------------------------------------------ 
D----2--3--5-----2--3--5-----2--3--5-----2--3--5- 
A-3-----------3-----------3-----------3---------- 
E------------------------------------------------ 

G------------------------------------------------ 
D----1--2--1--4--3--2--1-----2--3--5-----2--3--5- 
A-2-----------------------3-----------3---------- 
E------------------------------------------------ 

G------------------------------ 
D----1--2--1--4--3--2--1------- 
A-2----------------------3----- 
E------------------------------ 

G------------------------------------------------ 
D----1--2--1--4--3--2--1-----2--3--5-----2--3--5- 
A-2-----------------------3-----------3---------- 
E------------------------------------------------ 

G-------------------------------------------------------------- 
D----1--2--1--4--3--2--1- TAPITY TAPITY TAP! TAPITY TAPITY TAP! 
A-2------------------------------------------------------------ 
E-------------------------------------------------------------- 

G------------------------ 
D-4------4------4------4- 
A------------------------ 
E------------------------ 

Tabbed and submitted by Aaron 
latch_key_kid@hotmail.com 

------------------------------------------------------------------------------
Comments