Tiger Army - Power Of Moonlite Chords & Tabs

 

Power Of Moonlite Chords & Tabs

Tiger Army Chords & Tabs

Version: 1 Type: Bass Tab 0 ratings
1 star 2 stars 3 stars 4 stars 5 stars
comments

Power Of Moonlite Bass Tab

   
Tiger Army - Power Of Moonlite

By:Josh Penunuri 
Alright, this song uses slides, so learn to slide pretty good then try this. 
You also have to play this song really fast. Just goalong with Lars Fredrickson 
who by the way is playing the slide guitar for Tiger Army in this song. 
/=slide 
h=hammer 

Intro: 
G|---------------------------------------------------------------------------| 
D|---------------------------------------------------------------------------| 
A|-------------------5h------------------------------------------------------| 
E|-77h---55h---33h-----------------------------------------------------------| 
[ Tab from: http://www.guitartabs.cc/tabs/t/tiger_army/power_of_moonlite_btab.html ]
Verse: 
G|---------------------------------------------------------------------------| 
D|---------------------------------------------------------------------------| 
A|-----------------------------------5---------------------------------------| 
E|-7777/55---7777/55---7777/55---3-------------------------------------------| 

Chorus: 
G|--------------------------------------------------|-on the last time hammer| 
D|--------------------------------------------------|------------------------| 
A|----------------------------------------5555555555|-5h---------------------| 
E|-7777777777---5555555555---3333333333-------------|------------------------| 

Bridge: 
G|---------------------------------------------------------------------------| 
D|---------------------------------------------------------------------------| 
A|---------------------------------------------------------------------------| 
E|-7777777777---5555555555---------------------------------------------------| 

Any questions or comments? Tigerarmyn3vrdie@cs.com T.A.N.D.!!!
Comments