Tiger Army - Outlaw Heart Chords & Tabs

 

Outlaw Heart Chords & Tabs

Tiger Army Chords & Tabs

Version: 3 Type: Tab 0 ratings
1 star 2 stars 3 stars 4 stars 5 stars
comments

Outlaw Heart Tab

   
Song: Outlaw Heart
Band: Tiger Army
Album: Tiger Army
Track: 11
Guitarist: Nick 13
Tuning: Stadard (E,A,D,G,B,E)
Tabbed By: NeKxRomantic

These tabs are for Nick 13's lead guitar, not the slide guitar going on in the background.

______________________________
Intro:
E|--------------------------------------------|
B|--------------------------------------------|
G|--------------------------------------------|
D|--------------------------------------------|
A|4-4-4-3-1--1-1-1-3-4--4-4-4-3-1-3-1-3-1-3---|
E|------------------------------------------4-|

E|------------------------------------------------------|
B|------------------------------------------------------|
G|------------------------------------------------------|
D|------------------------------------------------------|
A|4-4-4-3-1--1-1-1-3-4--4-4-4-3-1-3-1-3-1-3-4-4-4-4-6-8-|
E|------------------------------------------------------|

Play this intro once.
______________________________
Verse 1:

Fig. 1
E|6-6-6-6-6--6-6-6-6-|
B|6-6-6-6-6--6-6-6-6-|
G|6-6-6-6-6--6-6-6-6-|
D|8-8-----8--8-----8-|
A|8-8--------8-------|
E|6-6--------6-------|
  D-D-U-U-D----------|D-U-U-D

Note: For things to line up easily, i have replaced "10" with "0" and "11" with "1"
      just for figure 2.
Fig. 2
E|9-9-9-9-9--9-9-9-9-|
B|9-9-9-9-9--9-9-9-9-|
G|0-0-0-0-0--0-0-0-0-|
D|1-1-----1--1-----1-|
A|1-1--------1-------|
E|9-9--------9-------|
  D-D-U-U-D----------|D-U-U-D

Fig. 3
E|2-2-2-2-2--2-2-2-2-|
B|2-2-2-2-2--2-2-2-2-|
G|3-3-3-3-3--3-3-3-3-|
D|4-4-----4--4-----4-|
A|4-4--------4-------|
E|2-2--------2-------|
  D-D-U-U-D----------|D-U-U-D

Fig. 4
E|4-4-4-4-4--4-|
B|4-4-4-4-4--4-|
G|5-5-5-5-5--5-|
D|6-6-----6--6-|
A|6-6--------6-|
E|4-4--------4-|
  D-D-U-U-D----|D

To Play Verse 1:
Play fig. 1 and then slide to fig. 2: 4 times
Play fig. 3 and then slide to fig. 2: 3 times
Play fig. 3 and then slide to fig. 4: 1 time

______________________________
Solo 1:

Fig. 1
E|----9-----9-11-9-11/13-11-9----9-----------9-|
B|9/11-11--------------------9p11-11-----11--9-|
G|--------10------------------------10-10---10-|
D|---------------------------------------------|
A|---------------------------------------------|
E|---------------------------------------------|

Play this twice.
______________________________
Bridge:

Fig. 1
E|6-6-6-6--6-6-6-|
B|6-6-6-6--6-6-6-|
G|6-6-6-6--6-6-6-|
D|8-8------8-----|
A|8-8------8-----|
E|6-6------6-----|
  D-D-U-U--------|D-U-U

Note: For things to line up easily, i have replaced "10" with "0" and "11" with "1"
      just for figure 2.
Fig. 2
E|9-9-9-9--9-9-9-|
B|9-9-9-9--9-9-9-|
G|0-0-0-0--0-0-0-|
D|1-1------1-----|
A|1-1------1-----|
E|9-9------9-----|
  D-D-U-U--------|D-U-U

To Play Bridge:
Play Fig. 1: 1 Time
Play Fig. 2: 1 Time
Play Fig. 1: 1 Time
Play Fig. 2: 1 Time

______________________________
Verse 2:

Fig. 1
E|6-6-6-6-6--6-6-6-6-|
B|6-6-6-6-6--6-6-6-6-|
G|6-6-6-6-6--6-6-6-6-|
D|8-8-----8--8-----8-|
A|8-8--------8-------|
E|6-6--------6-------|
  D-D-U-U-D----------|D-U-U-D

Note: For things to line up easily, i have replaced "10" with "0" and "11" with "1"
      just for figure 2.
Fig. 2
E|9-9-9-9-9--9-9-9-9-|
B|9-9-9-9-9--9-9-9-9-|
G|0-0-0-0-0--0-0-0-0-|
D|1-1-----1--1-----1-|
A|1-1--------1-------|
E|9-9--------9-------|
  D-D-U-U-D----------|D-U-U-D

Fig. 3
E|2-2-2-2-2--2-2-2-2-|
B|2-2-2-2-2--2-2-2-2-|
G|3-3-3-3-3--3-3-3-3-|
D|4-4-----4--4-----4-|
A|4-4--------4-------|
E|2-2--------2-------|
  D-D-U-U-D----------|D-U-U-D

Fig. 4
E|4-4-4-4-4--4-|
B|4-4-4-4-4--4-|
G|5-5-5-5-5--5-|
D|6-6-----6--6-|
A|6-6--------6-|
E|4-4--------4-|
  D-D-U-U-D----|D
[ Tab from: http://www.guitartabs.cc/tabs/t/tiger_army/outlaw_heart_tab_ver_3.html ]
To Play Verse 2:
Play fig. 1 and then slide to fig. 2: 8 times
Play fig. 3 and then slide to fig. 2: 3 times
Play fig. 3 and then slide to fig. 4: 1 time
Play fig. 3 and then slide to fig. 2: 3 times
Play fig. 3 and then slide to fig. 4: 1 time

______________________________
Solo 2:

Fig. 1
E|----9-----9-11-9-11/13-11-9----9-----------9-|
B|9/11-11--------------------9p11-11-----11--9-|
G|--------10------------------------10-10---10-|
D|---------------------------------------------|
A|---------------------------------------------|
E|---------------------------------------------|

Fig. 2
E|--14---16p14----14-13-|
B|14--14-------14----14-|
G|----------------------|
D|----------------------|
A|----------------------|
E|----------------------|

Fig. 3
E|--14---16p14----14----13-14p13-13-|
B|14--14-------14----14----------14-|
G|----------------------------------|
D|----------------------------------|
A|----------------------------------|
E|----------------------------------|

Fig. 4
E|--14--14--14--14-16-|
B|14--14--14--14---16-|
G|--------------------|
D|--------------------|
A|--------------------|
E|--------------------|

To Play Solo 2:
Play Fig. 1: 2 Times
Play Fig. 2: 2 Times
Play Fig. 3: 1 Time
Play Fig. 4: 1 Time

______________________________
Verse 3:

Fig. 1
E|6-6-6-6-6--6-6-6-6-|
B|6-6-6-6-6--6-6-6-6-|
G|6-6-6-6-6--6-6-6-6-|
D|8-8-----8--8-----8-|
A|8-8--------8-------|
E|6-6--------6-------|
  D-D-U-U-D----------|D-U-U-D

Note: For things to line up easily, i have replaced "10" with "0" and "11" with "1"
      just for figure 2.
Fig. 2
E|9-9-9-9-9--9-9-9-9-|
B|9-9-9-9-9--9-9-9-9-|
G|0-0-0-0-0--0-0-0-0-|
D|1-1-----1--1-----1-|
A|1-1--------1-------|
E|9-9--------9-------|
  D-D-U-U-D----------|D-U-U-D

Fig. 3
E|6-
B|6-
G|6-
D|8-
A|8-
E|6-
  D

To Play Verse 3:
Play fig. 1 and then slide to fig. 2: 7 times
Play Fig. 3: 1 Time

______________________________
Outro

Fig. 1
E|6-6-6-6--6-6-6-|
B|6-6-6-6--6-6-6-|
G|6-6-6-6--6-6-6-|
D|8-8------8-----|
A|8-8------8-----|
E|6-6------6-----|
  D-D-U-U--------|D-U-U

Note: For things to line up easily, i have replaced "10" with "0" and "11" with "1"
      just for figure 2.
Fig. 2
E|9-9-9-9--9-9-9-|
B|9-9-9-9--9-9-9-|
G|0-0-0-0--0-0-0-|
D|1-1------1-----|
A|1-1------1-----|
E|9-9------9-----|
  D-D-U-U--------|D-U-U

To Play Outro:
Play Fig. 1: 1 Time
Play Fig. 2: 1 Time
Play Fig. 1: 1 Time
Play Fig. 2: 1 Time

END

Use little or no distortion for this song, but light tremolo in the solo sounds good.

Lyrics:
desert nights under lonely stars
cruising down a highway takes me further from home
whiskey and regret...
neither can erase the fact that I have done wrong

So now im on the run
the law is on my trail
let down the only girl that ever seemed to be the one for me
so now i wander alone

alone in a cheap motel room
praying to the lord above
burden of the past rest so heavey on my shoulders
my conscience carries the weight of blood
cigarette smoke and shadow
a neon cactus in the night
did what i did because i thought that i had no choice
but theres always another way

i look to the moon and stars
somewhere underneath them, shes there
never even spoke to her the words of love i hid in my heart
if she heard them now, would she still care?
wonder if shes thinking of me
does she hate me for what ive done?
how i wish that i could change everything and go back
now that my last chance is gone
its gone

Moon, will you tell her for me
i'm sorry for all the trouble that ive caused
if only i could find a way to return to her someday
for i long to hold her in my arms
but i fear that im not for this world
because i will not go out without a fight
im running forever and if they should catch me
one last thought of her before my gun is fired...


Comments/questions and the like? IM me at NekxROMANTIC.
		P S Y C H O  R O C K 'N' R O L L
Comments