Tiger Army - Nocturnal Chords & Tabs

 

Nocturnal Chords & Tabs

Tiger Army Chords & Tabs

Version: 3 Type: Tab 0 ratings
1 star 2 stars 3 stars 4 stars 5 stars
comments

Nocturnal Tab

   
Tiger Army - Nocturnal

* = Play 4 times   ~ = Let ring  / = Slide down while picking
x = Left hand muted              \ = Slide up

Intro
E|------------------------------------|
B|------------------------------------|
G|--11---7-7-7-4-4-4------------------|
D|--11---7-7-7-4-4-4------------------| 2X
A|--9----5-5-5-2-2-2------------------|
E|------------------------------------|

Riff
E|-----2X------|-----------------------|
B|--*--*--*-*--|--*-*-*----------------|
G|--11-11-7-4--|--6-6-6-6~-------------|
D|--11-11-7-4--|--6-6-6-6~-------------|
A|--9--9--5-2--|--4-4-4-4~-------------|
E|-------------|-----------------------|

Solo
E|---------------------------------------------|
B|--------------3333--2-0----------------------|
G|---1-2-4-2-1------------2-1--------1-2-1-----|
D|-4--------------------------44-4-4-------2~--|
A|---------------------------------------------|
E|---------------------------------------------|

E|-------------------0----------------------------------|
B|--------------3333---3-2-0-------1-1-1--2~------------|
G|---1-2-4-2-1---------------4-4-4-----------9////////--|
D|-4----------------------------------------------------|
A|------------------------------------------------------|
E|------------------------------------------------------|

Verse 
E|------------------------------------------------|
B|--*--*--*-*--*--*----*--*--*--*-*--*-*-*-*-*-*--|
G|--11-11-7-4--11-11-*-9--11-11-7-4--7-7-9-9-9-9--|
D|--11-11-7-4--11-11-7-9--11-11-7-4--7-7-9-9-9-9--|
A|--9--9--5-2--9--9--7-7--9--9--5-2--5-5-7-7-7-7--|
E|-------------------5----------------------------|

Chorus
E|-----------xxxxxxxxxxxxxxxx------------xxxxxxxxxxxxxxxx--|
B|-----------xxxxxxxxxxxxxxxx------------xxxxxxxxxxxxxxxx--|
G|-4-4-4-2-4-xxxxxxxxxxxxxxxx--4-4-4-2---xxxxxxxxxxxxxxxx--|
D|-4-4-4-2-4-xxxxxxxxxxxxxxxx--4-4-4-2-5-xxxxxxxxxxxxxxxx--|
A|-2-2-2-0-2-xxxxxxxxxxxxxxxx--2-2-2-0-5-xxxxxxxxxxxxxxxx--|
E|-----------xxxxxxxxxxxxxxxx----------3-xxxxxxxxxxxxxxxx--|

E|-----------xxxxxxxxxxxxxxxx------------|
B|-----------xxxxxxxxxxxxxxxx--*-*-*-*---|
G|-4-4-4-2-4-xxxxxxxxxxxxxxxx--7-7-9-9---|
D|-4-4-4-2-4-xxxxxxxxxxxxxxxx--7-7-9-9---|
A|-2-2-2-0-2-xxxxxxxxxxxxxxxx--5-5-7-7---|
E|-----------xxxxxxxxxxxxxxxx------------|

[ Tab from: http://www.guitartabs.cc/tabs/t/tiger_army/nocturnal_tab_ver_3.html ]
Riff 2
E|-----4X------|---------------------|
B|--*--*--*-*--|--*-*-*--------------|
G|--11-11-7-4--|--6-6-6--------------|
D|--11-11-7-4--|--6-6-6--------------|
A|--9--9--5-2--|--4-4-4-9///////-----|
E|-------------|---------------------|

Verse 2
E|------------------------------------------------|
B|-----------------------------------*-*-*-*-*-*--|
G|--11~-7~-4~--11~----9~--11~-7~-4~--7-7-9-9-9-9--|
D|--11~-7~-4~--11~-7~-9~--11~-7~-4~--7-7-9-9-9-9--|
A|--9-~-5~-2~--9-~-7~-7~--9-~-5~-2~--5-5-7-7-7-7--|
E|-----------------5~-----------------------------|

Chorus
E|-----------xxxxxxxxxxxxxxxx------------xxxxxxxxxxxxxxxx--|
B|-----------xxxxxxxxxxxxxxxx------------xxxxxxxxxxxxxxxx--|
G|-4-4-4-2-4-xxxxxxxxxxxxxxxx--4-4-4-2---xxxxxxxxxxxxxxxx--|
D|-4-4-4-2-4-xxxxxxxxxxxxxxxx--4-4-4-2-5-xxxxxxxxxxxxxxxx--|
A|-2-2-2-0-2-xxxxxxxxxxxxxxxx--2-2-2-0-5-xxxxxxxxxxxxxxxx--|
E|-----------xxxxxxxxxxxxxxxx----------3-xxxxxxxxxxxxxxxx--|

E|-----------xxxxxxxxxxxxxxxx----------|-Last-|
B|-----------xxxxxxxxxxxxxxxx--*-*-*-*-|-Time-|
G|-4-4-4-2-4-xxxxxxxxxxxxxxxx--7-7-9-9-|------|
D|-4-4-4-2-4-xxxxxxxxxxxxxxxx--7-7-9-9-|--4~--| 2X
A|-2-2-2-0-2-xxxxxxxxxxxxxxxx--5-5-7-7-|--4~--|
E|-----------xxxxxxxxxxxxxxxx----------|--2~--|


Outro
E|-----|-------------------------------------------------------------------|
B|-----|----------14-14-14-15-15-15-14-14-14-------12-12-12-------12-12-12-|
G|-\11-|-11-11-11----------------------------9-9-9----------9-9-9----------|
D|-----|-------------------------------------------------------------------|
A|-----|-------------------------------------------------------------------|
E|-----|------------------------------4X-----------------------------------|

E|-------------------------------------------------------------|
B|-9-9-9-10-10-10-9-9-9-10-10-10-8-8-8-10-10-10-8-8-8-10-10-10-|
G|-------------------------------------------------------------|
D|-------------------------------------------------------------|
A|-------------------------------------------------------------|
E|-------------------------------------------------------------|

E|-------------------------------------------------------------------------|
B|----------14-14-14-15-15-15-14-14-14-------12-12-12-------12-12-12-------|
G|-11-11-11----------------------------9-9-9----------9-9-9----------11~-11|
D|-------------------------------------------------------------------------|
A|-------------------------------------------------------------------------|
E|-------------------------------------------------------------------------|

Yeah!

Comments, Questions, whatever Mail me; the_war_on_bush@hotmail.com
Comments