Tiger Army - Nocturnal Chords & Tabs

 

Nocturnal Chords & Tabs

Tiger Army Chords & Tabs

Version: 2 Type: Tab 0 ratings
1 star 2 stars 3 stars 4 stars 5 stars
comments

Nocturnal Tab

   
First off, if like to say that Tiger Army is one of the best 
Psychobilly bands of all time.
With that said...lets get down to business...


This is a guitar tab for "Nocturnal" by Tiger Army...
the other one is somewhat right, but didnt have the correct outro and the 
chord progressions might be a bit easier on this one...
Also, the solo on the other one was correct, its just that i find this 
version a bit easier in my opinion, but then again, its up to you...
i didnt put in the number of times you strum each chord, but its not hard
to figure out...enjoy :) im pretty sure this is all 100% correct


(t) = let ring with a bit, or a lot of tremelo, 
    but in some cases, a slight bend will do just fine

\=slide down
/ = slide up
h = hammer on
p = pull off
(x)= scratch on that note/chord

Note- Play the second verse with lots of tremelo...some of the 
powerchords are picked by individual notes in the chord, 
some are just strummed once instead of repetitively...
if you dont understant what i mean, just listen to the song

Yet another note- For all of the "effects" (bends, tremelos,
scratches, slides, etc.) listen to the song to get their exact timing and sound
once again I'll remind you...I DIDNT PUT THE NUMBER OF TIMES YOU 
STRUM EACH CHORD with the exception of the outro...however..
The strumming pattern isnt hard to figure out, 
its just like many other Tiger Army songs...
Nick 13 plays most of the parts with a "galloping" kind of rythm 
that it some places fits the rythm of the stand up bass...

INTRO:
 play three times, and on the 4th, slide up to the C# (in the parenthesis)       
E------------------|          
B------------------|           
G-11---------------|
D-11-12-9-(11)-11\-|
A--9-12-9-(11)-11\-|
E----10-7-(9)---9\-|
 
SOLO!!!!!!!!!!!!!!!
E---------------------------------------------------------------------------
B----------------------------------------------------------5----------------
G-------4----7-7-6-4-----------------------------4-----7-7---7-6p4----------
D-4-6-7---7-6-------6h7-4-4-4-6-7-6-4\2(t)-4-6-7---7-6------------4-4-4-6-7-
A---------------------------------------------------------------------------
E---------------------------------------------------------------------------

E-----------|
B-----------|
G-----------| the end slide is a little weird, i think he starts on the 12th
D6-7(t)-X\--| fret and scratches the note as he slides down, but im not sure
A-------X\--|
E-------X\--|



[ Tab from: http://www.guitartabs.cc/tabs/t/tiger_army/nocturnal_tab_ver_2.html ]
Verse
E-----------------------------|
B-----------------------------|
G-11-------9------11------5-9-|
D-11-12-9-11-5-12-11-12-9-5-9-|
A--9-12-9-11-5-12--9-12-9-7-7-|
E----10-7----7-10----10-7-----|

Chorus part 1 (we came from nowhere...)
E----------|
B----------|
G-4-2------|
D-4-2-4(x)-|
A-2-0-4(x)-|
E-----2(x)-|

Chorus part 2 (nocturnal in shadows dwell...
E--------|
B--------|
G-5-9----|
D-5-9----|
A-7-7----|
E--------|


Outro...this is easy, sounds cool, and i think is fun to play...
also, i DID put the number of times you strum each note and im pretty sure this
is 100% correct...

 OUTRO RIFF 1
E-7/14-14-14-14-16-16-16-17-17-17-16-16-16-17-17-17-19-19-19-17-17-17-19-19-
B-7/14-14-14-14-14-14-14-14-14-14-14-14-14-17-17-17-17-17-17-17-17-17-17-17-
G---------------------------------------------------------------------------
D---------------------------------------------------------------------------
A---------------------------------------------------------------------------
E---------------------------------------------------------------------------

E-19-|
B-17-|
G----|
D----|
A----|
E----|




OUTRO RIFF 2
E-16-16-16-18-18-18-16-16-16-18-18-18-15-15-15-17-17-17-15-15-15-17-17-17-|
B-16-16-16-16-16-16-16-16-16-16-16-16-15-15-15-15-15-15-15-15-15-15-15-15-|
G-------------------------------------------------------------------------|
D-------------------------------------------------------------------------|
A-------------------------------------------------------------------------|
E-------------------------------------------------------------------------|

OUTRO RIFF 3
E-14-14-14-14-16-16-16-17-17-17-16-16-16-17-17-17-19-19-19-17-17-17-19-19-
B-14-14-14-14-14-14-14-14-14-14-14-14-14-17-17-17-17-17-17-17-17-17-17-17-
G-------------------------------------------------------------------------
D-------------------------------------------------------------------------
A-------------------------------------------------------------------------
E-------------------------------------------------------------------------

E-19-14(t)-14\-|
B-17-14(t)-14\-|
G----------14\-|
D--------------|
A--------------|
E--------------|

SONG ORDER!!!
Intro
Solo
Verse
Chorus part 1
Chorus part 1
Intro
Verse 
Chorus part 1
Chorus part 2
Chorus part 1
Chorus part 2
Outro riff 1
outro riff 1
outro riff 1
outro riff 1
outro riff 2
outro riff 3

TIGER ARMY NEVER DIES!!!!!!!!!!!!!!!!!!!
Comments