Tiger Army - Nocturnal Chords & Tabs

 

Nocturnal Chords & Tabs

Tiger Army Chords & Tabs

Version: 1 Type: Bass Tab 0 ratings
1 star 2 stars 3 stars 4 stars 5 stars
comments

Nocturnal Bass Tab

------------------------------------------------------------------------------- 
                                 NOCTURNAL - Tiger Army 
------------------------------------------------------------------------------- 

PLAY IN ORDER AS SHOWN BELOW!!! 
r=ring 

G:------------------------------------------------------------------------------------------- 
D:-4----4------------4----4------------4----4------------4----4------------------------------ 
A:--542--542-555-222--542--542-555-222--542--542-555-222--542--542-555-222-44-4-44-4-44-4-4r- 
E:------------------------------------------------------------------------------------------- 

G:---------------------------------------------------------------------------------- 
D:-44-4-44-4---------44-4-44-4-----222-44-4-44-4---------44-4-44-4------------------ 
A:-----------555-222-----------000---------------555-222-----------00-0-00-0-00-0-0- 
E:---------------------------------------------------------------------------------- 

G:---------------------------------------------------------------------------------- 
D:-44-4-44-4---------44-4-44-4-----222-44-4-44-4-------------------22-2-22-2-22-2-2- 
A:-----------555-222-----------000---------------555-222-55-5-55-5------------------ 
E:---------------------------------------------------------------------------------- 

G:--------------------------------------------------------------------------- 
D:-------------------------4--------------------------------22-2-22-2-22-2-2- 
A:-2220-2---0-4-5-2220-------5-4-2220-2---0-4-5-55-5-55-5-5------------------ 
E:--------2------------3-2----- --------2------------------------------------ 
[ Tab from: http://www.guitartabs.cc/tabs/t/tiger_army/nocturnal_btab.html ]
G:----------------------------------------------------------------------------------------- 
D:-4----4------------4----4------------444-777---------4----4------------------------------ 
A:--542--542-555-222--542--542-555-222---------555-222--542--542-555-222-44-4-44-4-44-4-4r- 
E:----------------------------------------------------------------------------------------- 

G:---------------------------------------------------------------------------------- 
D:-44-4-44-4---------44-4-44-4-----222-44-4-44-4-------------------22-2-22-2-22-2-2- 
A:-----------555-222-----------000---------------555-222-55-5-55-5------------------ 
E:---------------------------------------------------------------------------------- 

G:--------------------------------------------------------------------------- 
D:-------------------------4--------------------------------22-2-22-2-22-2-2- 
A:-2220-2---0-4-5-2220-------5-4-2220-2---0-4-5-55-5-55-5-5------------------ 
E:--------2------------3-2--------------2------------------------------------ 

G:------------------------------------------------------------------------------ 
D:-------------------------4--------------------------------22-2-22-2-22-2-2---- 
A:-2220-2---0-4-5-2220-------5-4-2220-2---0-4-5-55-5-55-5-5--------------------- 
E:--------2------------3-2--------------2------------------------------------2r- 

(extended ending) 
G:---------------------------------------------------------------------- 
D:-----4---------------4-------------6-7-6-7-5-7-5-7---4---------------- 
A:-------5-4-0-2-0-2-----5-4-0-2-0-2---------------------5-4-0-2-0-2---- 
E:-8/2---------------2-------------------------------2---------------2r- 

Tabbed by Filthy Rude_boy 
e-mail me for any corrections at nihlistic_xfish@hotmail.com 

-------------------------------------------------------------------------------
Comments