Tiger Army - Neobamboom Chords & Tabs

 

Neobamboom Chords & Tabs

Tiger Army Chords & Tabs

Version: 1 Type: Tab 0 ratings
1 star 2 stars 3 stars 4 stars 5 stars
comments

Neobamboom Tab

   
Tiger Army - Neobamboom

tabbed by: Bryan Sherbrook

         couldn't find this tab anywhere and i really liked the guitar part in it so I 
to do it myself, this is my first tab too!

main riff

e--\12-12-12-12-12--9--x-10-x-9------------------------------------|
b--\12-12-12-12-12--10-x-10-x-10-----------------------------------|
g------------------------------------------------------------------|
d------------------------------------------------------------------|
a------------------------------------------------------------------|
E------------------------------------------------------------------|

   play main riff 3x during vocals then...

e--12-12-12-12-12----15-15-15--------------------------------------|
b--12-12-12-12-12----14-14-14--------------------------------------|
g------------------------------------------------------------------|
d------------------------------------------------------------------|
a------------------------------------------------------------------|
E------------------------------------------------------------------|

  solo    (t=depress whammy bar)  frequently uses the whammy bar here even               
                      when not listed

e--12-12-12-12-12--9--x-10---15------15--------15-----15-----------|
b--12-12-12-12-12--10-x-10-----14------14--------14-----14---------|
g---------------------------------14------14t-------14-----14t-----|
d------------------------------------------------------------------|
a------------------------------------------------------------------|
E------------------------------------------------------------------|
[ Tab from: http://www.guitartabs.cc/tabs/t/tiger_army/neobamboom_tab.html ]
e--12-12-12-12-12---15---10---12-----12-12-12-12-12---15---10---12-|
b--12-12-12-12-12---14---10---12-----12-12-12-12-12---14---10---12-|
g------------------------------------------------------------------|
d------------------------------------------------------------------|
a------------------------------------------------------------------|
E------------------------------------------------------------------|

e--15------15--------15-15-18-18-----------------------------------|
b----14------14------14-14-17-17-----------------------------------|
g------14t-----14t-------------------------------------------------|
d------------------------------------------------------------------|
a------------------------------------------------------------------|
E------------------------------------------------------------------|

he pretty much plays the outro the same as the solo, no different chord positions at 
you should be able to figure it out, if not e-mail me and i'll tab it.


e------------------------------------------------------------------|
b------------------------------------------------------------------|
g--4-4-4-4-4--7--4-4-4-4--7-7-7-7-7-10-10-10-10--------------------|
d--4-4-4-4-4--7--4-4-4-4--7-7-7-7-7-10-10-10-10--------------------|
a--2-2-2-2-2--5--2-2-2-2--5-5-5-5-5-8--8--8--8---------------------|
E------------------------------------------------------------------|
     not sure if he plays this (above) earlier in the song ie. when he says "just wanna 
hold you baby, just gotta gotta make you mine!" etc.

e------------------------------------------------------------------|
b------------------------------------------------------------------|
g--9-x-9-x-9-x--7--9-----------------------------------------------|
d--9-x-9-x-9-x--7--9-----------------------------------------------|
a--7-x-7-x-7-x--5--7-----------------------------------------------|
E------------------------------------------------------------------|

| /  slide up
| \  slide down
| h  hammer-on
| p  pull-off                     GHOST TIGERS RISE!!!
| ~  vibrato
| +  harmonic
| x  Mute note

for more song requests, help, or feedback email me at dabigcheez99@yahoo.com
Comments