Tiger Army - Neobamboom Chords & Tabs

 

Neobamboom Chords & Tabs

Tiger Army Chords & Tabs

Version: 2 Type: Bass Tab 0 ratings
1 star 2 stars 3 stars 4 stars 5 stars
comments

Neobamboom Bass Tab

(INTRO)
G-------------------------------------------------
D-------------------------------------------------
A-7---5-7--------7---5-7--------------------------
E-----------77545---------------------------------

(Verse)Play 8x
G-------------------------------------------------
D-------------------------------------------------
A-7-5-4-------4-5---------------------------------
E-------7-5-4-------------------------------------

(Bridge)
G-------------------------------------------------
D-------------------------------------------------
A-55-5-55-5-55-5-8-8-88---------------------------
E-------------------------------------------------
VERSE 6 MORE TIMES
BRIDGE
VERSE 2 TIMES
[ Tab from: http://www.guitartabs.cc/tabs/t/tiger_army/neobamboom_btab_ver_2.html ]
(SOLO 1)
G-------------------------------------------------
D-------------------------------------------------
A-7-6-5-4-3-------------------4-5-----------------
E-----------7-5-4-3-0-3-4-5-7---------------------
VERSE 2 TIMES

(SOLO 2)
G-------------------------------------------------
D---6-7-8-9-8-7-6---------------------------------
A-7---------------7-6-5-4-----4-5-----------------
E-------------------------7-5---------------------
VERSE 2 TIMES
BRIDGE
VERSE 6 TIMES
BRIDGE
VERSE 6 TIMES
SOLO 2
VERSE 2 TIMES
BRIDGE

(OUTRO)
G-------------------------------------------------
D-------------------------------------------------
A-7-7-7-5-7--7-7-7-5-7--7-7-7-5-7--7-7-7-5-7------
E-------------------------------------------------

oh boy that sure was fun! im pretty sure its as close as any one will get...(at least
during this year)sorry if the bridge/verse parts are confusing, its real easy just to
learn the parts and listen to where to play them.
Comments