Tiger Army - Neobamboom Chords & Tabs

 

Neobamboom Chords & Tabs

Tiger Army Chords & Tabs

Version: 1 Type: Bass Tab 0 ratings
1 star 2 stars 3 stars 4 stars 5 stars
comments

Neobamboom Bass Tab

   
Tiger Army - Neobamboom

Intro 
G|Tippity Tap--Tippity Tap| 
D|-0-1-0-2-2-2-0-1-0-2-2-2| 
A|------------------------| 
E|------------------------| 

Verse (x8) 
G|-----------------| 
D|-4-3-2-1-1-2-3-4-| 
A|-----------------| 
E|-----------------| 

Bridge 
G|-------------------------| 
D|-1-1-1-2-2-2-3-3-3-4-4-4-| 
A|-------------------------| 
E|-------------------------| 
[ Tab from: http://www.guitartabs.cc/tabs/t/tiger_army/neobamboom_btab.html ]
Solo (after the "OUWW!!!") 
G|---------------------------------|-------------------------------|1-2-3-4-5-4-3-2-1-0----------|-------------------------------|-----------------------|
D|-8-7-6-5-4-3-2-1-2-3-4-5-6-7-8-9-|4-3-2-1-1-2-3-4-4-3-2-1-1-2-3-4|--------------------4-3-2-1-0|4-3-2-1-1-2-3-4-4-3-2-1-1-2-3-4|1-1-1-2-2-2-3-3-3-4-4-4|
A|---------------------------------|-------------------------------|-----------------------------|-------------------------------|-----------------------|
E|---------------------------------|-------------------------------|-----------------------------|-------------------------------|-----------------------|

After a some more versus and a bridge, there's another solo.
"OUWWWWW...GO GO GO!" This one excludes the "8-7-6"etc section from the first
solo, and instead has 6 Verse's before the 

G|1-2-3-4-5-4-3-2-1-0----------|-------------------------------|-----------------------|
D|--------------------4-3-2-1-0|4-3-2-1-1-2-3-4-4-3-2-1-1-2-3-4|1-1-1-2-2-2-3-3-3-4-4-4|
A|-----------------------------|-------------------------------|-----------------------|
E|-----------------------------|-------------------------------|-----------------------|

Outro "GOTTA MAKE YOU MINE...THAT'S RIGHT!" 
G|---------|----------|-----------|---------| 
D|2-2-2-0-2|-2-2-2-0-2|-2-2-2-0-2-|2-2-2-0-1| 
A|---------|----------|-----------|---------| 
E|---------|----------|-----------|---------| 

Not entirely accurate. If you need some more finger exercises, here you go.
Tough, but sounds ok to me on my upright and my electric. Any ? or comments,
email me at GreasyMatt@hotmail.com...not you Kramer!
Comments