Tiger Army - Last Night Chords & Tabs

 

Last Night Chords & Tabs

Tiger Army Chords & Tabs

Version: 1 Type: Bass Tab 0 ratings
1 star 2 stars 3 stars 4 stars 5 stars
comments

Last Night Bass Tab

Tiger Army - Last Night

by Mad_Sin 

Verse and Main Part (Play before bar one time,the rest of the song it's only behind) 

G|---|----------------------------------------------------------------| 
D|---|--2---2---2-----------------------------------------------------| 
A|---|----2---2---2-3-3-5-5-------------------------------------------| 
E|-0-|----------------------------------------------------------------| 

Verse And Main Part Continued (listen for rythm) 
G|--------------------------------------------------------------------| 
D|-2-0----------------------------------------------------------------| 
A|-----3-2-1-0-1-2-3-4-5-6-7------------------------------------------| 
E|--------------------------------------------------------------------| 
[ Tab from: http://www.guitartabs.cc/tabs/t/tiger_army/last_night_btab.html ]
Chorus (play before bar two times) 
G|------------------------|-------------------------------------------| 
D|------------------------|-------------------------------------------| 
A|------------------------|-3-3-3-2-----------------------------------| 
E|-3-3-3-3-3-3-2-2-2-2-2-2|-------------------------------------------| 

Break 
G|--------------------------------------------------------------------| 
D|-2-2-2-2------------------------------------------------------------| 
A|---------3-3-5-5----------------------------------------------------| 
E|--------------------------------------------------------------------| 

That's all,listen to the song to know where to play what and it should be ok. 
It's fairly easy the way I play it... 


comments? Caramon_Diablo@Hotmail.com
Comments