Tiger Army - Incorporeal Chords & Tabs

 

Incorporeal Chords & Tabs

Tiger Army Chords & Tabs

Version: 1 Type: Tab 0 ratings
1 star 2 stars 3 stars 4 stars 5 stars
comments

Incorporeal Tab

   
------------------------------------------------------------------------------- 
                     INCORPOREAL - Tiger Army 
------------------------------------------------------------------------------- 

By: Nick A.K.A. Mini-AL 

**Listen to recording for exact rhythm** 

Intro 
e|--7--------------------------------------------------------------| 
B|--7--------------------------------------------------------------| 
G|--7--------------------------------------------------------------| 
D|--9--------------------------------------------------------------| 
A|--9--volume swell------------------------------------------------| 
E|--7--------------------------------------------------------------| 

Verse A 
e|--7-7--7-7--9--9--------10-10--5-5--3-3--------------------------| 
B|--7-7--8-8--10-10-------10-10--5-5--3-3--------------------------| 
G|--7-7--9-9--11-11---2x--11-11--6-6--4-4--------------------------| 
D|--9-9--9-9--11-11-------12-12--7-7--5-5--------------------------| 
A|--9-9--7-7--9--9--------12-12--7-7--5-5--------------------------| 
E|--7-7-------------------10-10--5-5--3-3--------------------------| 
[ Tab from: http://www.guitartabs.cc/tabs/t/tiger_army/incorporeal_tab.html ]
Riff A 
e|-----------------------------7-7--9------------------------------| 
B|----7------------7-10-7-x-7--8-8--10-----------------------------| 
G|------7----------7-7--7-9-7--9-9--11--tremolo-------2x-----------| 
D|--9--------------9-9--9-x-9--9-9--11-----------------------------| 
A|--------let ring-------------7-7--9------------------------------| 
E|-----------------------------------------------------------------| 

Verse B 
e|--7-7--7-7--9--9--------10-10--5-5--3-3---7-7--------------------| 
B|--7-7--8-8--10-10-------10-10--5-5--3-3---7-7--14-14-14----------| 
G|--7-7--9-9--11-11---2x--11-11--6-6--4-4---8-8--14-14-14----------| 
D|--9-9--9-9--11-11-------12-12--7-7--5-5---9-9--14-14-14----------| 
A|--9-9--7-7--9--9--------12-12--7-7--5-5---9-9--12-12-12----------| 
E|--7-7-------------------10-10--5-5--3-3---7-7--------------------| 

Chorus 
e|--10-10--5-5--7-7--3-3-------3-5---------------------------------| 
B|--10-10--5-5--7-7--3-3-------3-5---------------------------------| 
G|--11-11--6-6--8-8--4-4--3x---4-6---------------------------------| 
D|--12-12--7-7--9-9--5-5-------5-7---------------------------------| 
A|--12-12--7-7--9-9--5-5-------5-7---------------------------------| 
E|--10-10--5-5--7-7--3-3-------3-5---------------------------------| 

Riff A 
Verse B 
Chorus 
Riff A Repeat 

End 
e|--9---7--5--2--2-2-2-----------------2---------------------------| 
B|--10--8--6--3--------3-3-3-----------3---------------------------| 
G|--11--9--7--4--------------4-4-4-----4---------------------------| 
D|--11--9--7--4---------------------4--4---------------------------| 
A|--9---7--5--2------------------------2---------------------------| 
E|-----------------------------------------------------------------|

===============================================================================
Comments