Tiger Army - Incorporeal Chords & Tabs

 

Incorporeal Chords & Tabs

Tiger Army Chords & Tabs

Version: 1 Type: Bass Tab 0 ratings
1 star 2 stars 3 stars 4 stars 5 stars
comments

Incorporeal Bass Tab

--------------------------------------------------------------------------------
                            INCORPOREAL - Tiger Army
-------------------------------------------------------------------------------- 
By:spidey255 

verse 
G|---------------------------------------------------------------------------| 
D|---------2-2-2-2-4-4-4-4-4-4-4-4-------------------------------------------| 
A|-2-2-2-2--2-2-2-2-4-4-4-4-4-4-4-4------------------------------------------| 
E|--2-2-2-2------------------------------------------------------------------| 

Prechorus 
G|---------------------------------------------------------------------------| 
D|-------------------------7---7---7---7-----5----5---5---5------2-2-2-4-4-4-| 
A|-5-0-0-5-0-0-5-0-0-5-0-0--7-7-7-7-7-7--7-7---5-5-5-5-5-5-5-5-2~------------| 
E|---------------------------------------------------------------------------| 
[ Tab from: http://www.guitartabs.cc/tabs/t/tiger_army/incorporeal_btab.html ]
(cont.) 
G|---------------------------------------------------------------------------| 
D|---2-2-2-4-4-4---7-7-7-7-7-5-4-2-------------------------------------------| 
A|-2~------------2>----------------------------------------------------------| 
E|---------------------------------------------------------------------------| 

Chorus 
G|-------------------------------------------------|-------------------------| 
D|-------------------------------------5-5-5-7-5-5-|-0-----------------------|
A|-5-5-5-5-5-5-0-0-0-0-0-0-2-2-2-2-2-2-------------|-------------------------| 
E|-------------------------------------------------|-------------------------| 

Ending 
G|---------------------------------------------------------------------------| 
D|-4~-2~-0~------------------------------------------------------------------| 
A|----------2~---------------------------------------------------------------| 
E|---------------------------------------------------------------------------|
Comments