Tiger Army - Fog Surrounds Chords & Tabs

 

Fog Surrounds Chords & Tabs

Tiger Army Chords & Tabs

Version: 1 Type: Bass Tab 0 ratings
1 star 2 stars 3 stars 4 stars 5 stars
comments

Fog Surrounds Bass Tab

  obvioulsy this is meant for an upright bass
  i dont have one so i slap a normal bass, it doesnt sound too bad
  you gotta get the triple slap thing goin, country/rockabilly style.
  lisen and you'll get it....slap away!


 Intro
 G--------------------------------------------
 D--------------------------------------------
 A-9---9--------------------------------------
 E---9---9---9--9--9--9---6-5-4-3-2~-----------
[ Tab from: http://www.guitartabs.cc/tabs/t/tiger_army/fog_surrounds_btab.html ]
 Verse
 G-----------------------------------------------------------
 D-----------------------------------------------------------
 A-6-6--2-2--6-6--4-22--4-22--6-6--2-2--6-6--4-22--4-22-4-22-
 E--6-6--2-2--6-6--------------6-6--2-2--6-6-----------------
 
 Verse cont.
 G-------------------------------------------------------------------------
 D-------------------------------------------------------------------------
 A-1~--1-----1------1------1-1---------------------------------------------
 E-------1-1---1-1----1-1--------------------------------------------------


 Chorus         3x                                 1x
 G-------------------------------|---------------------------------
 D-------------------------------|---------------------------------
 A-9--9---4--4---1--1---1---1----|-9--9--------------------6-------
 E---9--9---4--4---1--1---1---1--|---9--9--9-9-9---4-4-4-----------

 Solo       2x
 G--------------------------|--------------------------------------------
 D--------------------------|--------------------------------------------
 A-9--9--4--4--1--1--1--1~--|--9~---4~---9~---4~---9~---4~---9~--4-4-4-4-
 E---9--9--4--4--1--1--1----|--------------------------------------------


Last Verse
 G------------------------------------------------------------------
 D------------------------------------------------------------------
 A--------9--9---4--4---1--1--1--1---9--9--------------------6~-----
 E-6--9----9--9---4--4---1--1--1--1---9--9--9-9-9--4-4-4--6------6~-
Comments