Tiger Army - Cupids Army Chords & Tabs

 

Cupids Army Chords & Tabs

Tiger Army Chords & Tabs

Version: 1 Type: Tab 0 ratings
1 star 2 stars 3 stars 4 stars 5 stars
comments

Cupids Army Tab

   
------------------------------------------------------------------------------- 
                       CUPID'S ARMY - Tiger Army 
------------------------------------------------------------------------------- 

By: NolentheColon 

chords used: C# A# F F# G# G? 
e|----------------9------6------8---9----4---4-------------------------------| 
B|----------------9------6-----10--11----4---4-------------------------------| 
G|---------------10------7-----10--11----5---6-------------------------------| 
D|---------------11------8-----10--11----6---6-------------------------------| 
A|---------------11------8------8---9----6---6-------------------------------| 
E|----------------9------6---------------4---4-------------------------------| 

verse: C# A# 

"Without a warning it comes flying- 
& when it strikes my world changes, all reason left behind..." 

F/F# x4 G# G? G# 
"And I know...my heart's no longer mine 




chorus: "just like an arrow through my heart...." 
[ Tab from: http://www.guitartabs.cc/tabs/t/tiger_army/cupids_army_tab.html ]
e|---------13-13----13-16-16-13-16-------------------------11-11----11-------| 
B|---14-14-------14----------------------14-14----14-13-13-------13----14----| 
G|---------------------------------15-15-------15----------------------------| 
D|---------------------------------------------------------------------------| 
A|---------------------------------------------------------------------------| 
E|---------------------------------------------------------------------------| 

post chorus: 

"from this moment on...." 

C# F# C# F# x2 (listen to get the rhythm right) 

verse: C# A# 

"Can't shake this fever from my mind 
It burns away all that has passed and draws me to her side..." 

F/F# x4 G# G? G# 
"And I know...my heart's no longer mine 


chorus: "just like an arrow through my heart...." 

e|---------13-13----13-16-16-13-16-------------------------11-11----11-------| 
B|---14-14-------14----------------------14-14----14-13-13-------13----14----| 
G|---------------------------------15-15-------15----------------------------| 
D|---------------------------------------------------------------------------| 
A|---------------------------------------------------------------------------| 
E|---------------------------------------------------------------------------| 

ending: 

e|---------13-13----14-16-16-13-------------------------11-11----11----------| 
B|---14-14-------14-------------------14-14----14-13-13-------13----14-------| 
G|------------------------------15-15-------15-------------------------------| 
D|---------------------------------------------------------------------------| 
A|---------------------------------------------------------------------------| 
E|---------------------------------------------------------------------------| 

end on C# 

nolenthecolon@lycos.com 

-------------------------------------------------------------------------------
Comments