Tiffany - Almost In Love Chords & Tabs

 

Almost In Love Chords & Tabs

Tiffany Chords & Tabs

Version: 1 Type: Tab 0 ratings
1 star 2 stars 3 stars 4 stars 5 stars
comments

Almost In Love Tab

   
Almost in Love
Tiffany
(Arnold/Agusto/Ezrin/Laird-Clowes)
[ Tab from: http://www.guitartabs.cc/tabs/t/tiffany/almost_in_love_tab.html ]
Heavy Echo Throughout
	G
e:------------|
B:------3--3--|
G:----0-------|
D:--5-----5---|  First sequence.....Repeat 12 times
A:------------| (mute D string with wrist)
E:------------|
	G		      ^--let ring (LOTS of echo)	
e:-------------------3---3----3--------------------------------|
B:------3--3-----3-----3------1-(pause-------3---3-------------|
G:----0--------0---0-------0-----with------0-------------------|
D:--5-----5--5-------------------echo)----5-----5--------------|
A:-------------------------------------------------------------|
E:-------------------------------------------------------------|

e:---------------3--3------------------------------------------|
B:------3--3------3-1------(pause with echo again)-------------|
G:----0--------0-----------------------------------------------|
D:--5-----5--5-------------------------------------------------|
A:-------------------------------------------------------------|
E:-------------------------------------------------------------|

e:-------3----|
B:---3---3----|
G:----0--0----|
Comments