Tierra Santa - Medieval Chords & Tabs

 

Medieval Chords & Tabs

Tierra Santa Chords & Tabs

Version: 1 Type: Tab 0 ratings
1 star 2 stars 3 stars 4 stars 5 stars
comments

Medieval Tab

                                                             18/6/2004
 Tierra Santa 
 Álbum: Medieval
 Canción: Medieval

 --------------------------:::::INTRO:::::---------------------------
[ Tab from: http://www.guitartabs.cc/tabs/t/tierra_santa/medieval_tab.html ]
 E-------------------------------------------------------|
 B--3--5/6--6--5--3--1-----5--3--6--5--1--3--5/6--6--6/8-|
 G----------------------2--------------------------------|
 D-------------------------------------------------------|
 A-------------------------------------------------------|
 E-------------------------------------------------------|

  --5/6--5--6\5----------------|
  ---------------8--6--5--1--3-|
  -----------------------------|
  -----------------------------|
  -----------------------------|
  -----------------------------|
                                          
 Dudas o comentarios enviar un mensaje a javitoooes@hotmail.com

 Akro ---> (T]-[E   GUIT/\R  |3 U R /\/ E R)
Comments