Tierra Santa - La Cruzada Chords & Tabs

 

La Cruzada Chords & Tabs

Tierra Santa Chords & Tabs

Version: 1 Type: Tab 0 ratings
1 star 2 stars 3 stars 4 stars 5 stars
comments

La Cruzada Tab

--------------------------------------------------------------------------|
--------------------------------------------------------------------------|
----------------16v--14-16-17-16v--21-19----14-16v---21--19-17-16-14-16v--|
--14--14-14-14---------------------------19-------------------------------|
--------------------------------------------------------------------------|
--------------------------------------------------------------------------|
[ Tab from: http://www.guitartabs.cc/tabs/t/tierra_santa/la_cruzada_tab.html ]
----------------------------------------------------------------------------|
----------------------------------------------------------------------------|
-----16-17-16-14-16---------------------------------------------------------|
--17----------------14v-----------------------------------------------------|
----------------------------------------------------------------------------|
----------------------------------------------------------------------------|

v= means for me vibrato

this is half of intro

for more info of me: fallen_angel@hotmail.com
Comments