Tierra Santa - La Cancion Del Pirata Ii Chords & Tabs

 

La Cancion Del Pirata Ii Chords & Tabs

Tierra Santa Chords & Tabs

Version: 1 Type: Tab 0 ratings
1 star 2 stars 3 stars 4 stars 5 stars
comments

La Cancion Del Pirata Ii Tab

     ..::Tierra Santa::..
..::La Cancion Del Pirata II::..
        ..::por Tato::..


Intro
e|-----------------------------------------------------------------------|
B|---------6----------------6----------------6----------------6----------|
G|-----7-----7---7------7-----7---7------7-----7---7------7-----7---7----|
D|---7---7-----7------7---7-----7------7---7-----7------7---7-----7------|
A|-5----------------5----------------5----------------5------------------|
E|-----------------------------------------------------------------------|

Punteo 1 Acustico
e|-----------------------------------------------------------------------|
B|-----------5-6-3/5----------6--8-6-5---------3/5----5/6-5--6-8-6-5-----|
G|-//7---5-7---------7--7/9-------------7-5-7------3-----------------7-5-|
D|-----------------------------------------------------------------------|
A|-----------------------------------------------------------------------|
E|-----------------------------------------------------------------------|

e|---------------------------------------------------------------|
B|--------------------------5-6-5--------------------------------|
G|-9/10--9-10-9--7-5-7--5-7-------7-5-3--3-3/5--3-2--7-7/9---7---|
D|---------------------------------------------------------------|
A|---------------------------------------------------------------|
E|---------------------------------------------------------------|

Ritmo el punteo 1
e|------------------------------------------------------------------------|
B|----------6----------------3----------------5----------------2----------|
G|*-----7-----7---7------3-----3---3------5-----5---5------2-----2---2---*|
D|*---7---7-----7------3---3-----3------5---5-----5------2---2-----2-----*|
A|--5----------------1----------------3----------------0------------------|
E|------------------------------------------------------------------------|

e|--------------------------------------------------------------------|
B|---------3----------------5----------------6----------------6-------|
G|-----3-----3---3------5-----5---5------7-----7---7------7-----7---7-|
D|---3---3-----3------5---5-----5------7---7-----7------7---7-----7---|
A|-1----------------3----------------5----------------5---------------|
E|--------------------------------------------------------------------|
[ Tab from: http://www.guitartabs.cc/tabs/t/tierra_santa/la_cancion_del_pirata_ii_tab.html ]
e|----------------------------------------------------0--|
B|---------3----------------5----------------2--------2--|
G|-----3-----3---3------5-----5---5------2-----2---2--2--|
D|---3---3-----3------5---5-----5------2---2-----2----2--|
A|-1----------------3----------------0----------------0--|
E|-------------------------------------------------------|

Riff 1 x8
e|--------------------------------------------------------------------|
B|---------6----------------3----------------5----------------2-------|
G|-----7-----7---7------3-----3---3------5-----5---5------2-----2---2-|
D|---7---7-----7------3---3-----3------5---5-----5------2---2-----2---|
A|-5----------------1----------------3----------------0---------------|
E|--------------------------------------------------------------------|

Punteo 2 Acustico
e|--------------------------------------------------------------------------|
B|-----------5-6-3/5----------6--8-6-5---------3/5----5/6-5--6-8-6-5--------|
G|-//7---5-7---------7--7/9-------------7-5-7-------3-----------------7-5-7-|
D|--------------------------------------------------------------------------|
A|--------------------------------------------------------------------------|
E|--------------------------------------------------------------------------|

Ritmo bajo el punteo 2
e|----------------------------------------------------------------------|
B|----------6----------------3----------------5----------------2--------|
G|*-----7-----7---7------3-----3---3------5-----5---5------2-----2---2-*|
D|*---7---7-----7------3---3-----3------5---5-----5------2---2-----2---*|
A|--5----------------1----------------3----------------0----------------|
E|----------------------------------------------------------------------|

Riff 1 x2

Riff 2                                          x3
e|-----------------------------------------------|
B|-----------------------------------------------|
G|---------7----------5----------3-------2--3--5-|
D|---------7----------5----------3-------2--3--5-|
A|-5-5-5-5-5--3-3-3-3-3--1-1-1-1-1--0-0--0--1--3-|
E|-----------------------------------------------|
 PM. . . .    . . . .    . . . .    . .

e|----------------------------------------|
B|----------------------------------------|
G|---------7----------5----------3--2-----|
D|---------7----------5----------3--2-----|
A|-5-5-5-5-5--3-3-3-3-3--1-1-1-1-1--0-----|      
E|----------------------------------------|    
 PM. . . .    . . . .    . . . .           

Outro:

e|----------------------------------------|
B|--7-9-9^11^9-7-9--7-5-3--2---7----------|
G|-7--------------------------------------|
D|----------------------------------------|
A|----------------------------------------|      
E|----------------------------------------| 
Comments