Tiberius - Acid Chords & Tabs

 

Acid Chords & Tabs

Tiberius Chords & Tabs

Version: 1 Type: Tab 0 ratings
1 star 2 stars 3 stars 4 stars 5 stars
comments

Acid Tab

Craven, Schmidt)


  Heavy Distortion
E----------------------------------------------------------
B----------------------------------------------------------
G	7777---------------------------------
D-22-5-2-7	22-5-2--7777---------------------------------
A-22-5-2-7	22-5-2--5555---------------------------------
E-OO-3-0-5\-OO-3-0---------------------------------------

E----------------------------------------------------------
B----------------------------------------------------------
G---------------------------------------------7777---------
D-22-----------22------------22------------5--7777	
A-22-----------22------------22------------5--5555---------
E-00-000000000-00-0000000000-00-0000000000-3---------------
     .........    ..........    ..........

E----------------------------------------------------------
B----------------------------------------------------------
G	7///------------------------------------
D-22	55	22-7///------------------------------------
A-22	55	22-5///------------------------------------
E-00-000-33-000-00-----------------------------------------
[ Tab from: http://www.guitartabs.cc/tabs/t/tiberius/acid_tab.html ]
 Acustic Interlude
E	0-----------------
B	0-------------------0--0	0----------------
G	0-0-0---------------0--0	0--0---------------
D---2---2	3	2--2	3	3	3--------------
A--2	3-3---3	2	3-3	3-------------
E-0	l---l-l-l--0	l	l-l	l------------


E----------------------------------------------------------
B----------------------------------------------------------
G	7///------------------------------------
D-22	55	22-7///------------------------------------
A-22	55	22-5///------------------------------------
E-00-000-33-000-00----------------------------------------- 


E----------------------------------------------------------
B----------------------------------------------------------
G---------------------------------------------7777---------
D-22-----------22------------22------------5--7777	
A-22-----------22------------22------------5--5555---------
E-00-000000000-00-0000000000-00-0000000000-3---------------
     .........    ..........    ..........
E----------------------------------------------------------
B----------------------------------------------------------
G	7777---------------------------------
D-22-5-2-7	22-5-2--7777---------------------------------
A-22-5-2-7	22-5-2--5555---------------------------------
E-OO-3-0-5\-OO-3-0---------------------------------------



Comments