Tiamat - Wings Of Heaven Chords & Tabs

 

Wings Of Heaven Chords & Tabs

Tiamat Chords & Tabs

Version: 2 Type: Tab 0 ratings
1 star 2 stars 3 stars 4 stars 5 stars
comments

Wings Of Heaven Tab

   
Band:  Tiamat
Album: Prey
Song:  Wings of Heaven

Copyright (c)  Century Media 2003
Version 1.0 - 2005-07-03

Transcribed By: ceph
Email:          ceph_666 @ hotmail.com

x = mute

Tuning E A D G B E

Intro

e---------------------------|---------------------------| x1
B------1-0------------------|------1-0------------------|
G----------2-2-0------------|----------2-2-0------------|
D----2-----------2-2-0------|----2-----------2-2---0-0--|
A--0------------------------|--0------------------------|
E----------------------3-3--|--------------------3------|

Verse I

I'll be your master...
e----0-----------0-0--------|----0-----------0-0--------| x2
B------1-0-----------3------|------1-0-------------3-3--|
G--2-------2-2-0-------0-0--|--2-------2-2-0-----0------|
D---------------------------|---------------------------|
A---------------------------|---------------------------|
E---------------------------|---------------------------|

Chorus I

The wings...
e--------------------------------------- x1
B---------------------------------------
G---------------------5-5-5-5--5-5-5-5--
D--\7-7-7-7--5-5-5-5--5-5-5-5--5-5-5-5--
A--\7-7-7-7--5-5-5-5--3-3-3-3--3-3-3-3--
E--\5-5-5-5--3-3-3-3--------------------

e------------------------------------------ x3
B------------------------------------------
G---------------------5-5-5-5--------------
D---7-7-7-7--5-5-5-5--5-5-5-5--2-2-2-2-----
A---7-7-7-7--5-5-5-5--3-3-3-3--2-2-2-2-----
E---5-5-5-5--3-3-3-3-----------0-0-0-0-----

Last time:
e-----
B-----
G-----
D--7--
A--7-- let ring
E--5--

Bridge I (or whatever you guys call it)

e---------------------------|---------------------------|
B------1-0------------------|------1-0------------------|
G----------2-2-0------------|----------2-2-0------------|
D----2-----------2-2-0------|----2-----------2-2---0-0--|
A--0------------------------|--0------------------------|
E----------------------3-3--|--------------------3------|

Verse II
[ Tab from: http://www.guitartabs.cc/tabs/t/tiamat/wings_of_heaven_tab_ver_2.html ]
Thank you...
e----0-----------0-0--------|----0-----------0-0--------| x2
B------1-0-----------3------|------1-0-------------3-3--|
G--2-------2-2-0-------0-0--|--2-------2-2-0-----0------|
D---------------------------|---------------------------|
A---------------------------|---------------------------|
E---------------------------|---------------------------|

Chorus II x2

The wings...
e--------------------------------------- x1
B---------------------------------------
G---------------------5-5-5-5--5-5-5-5--
D--\7-7-7-7--5-5-5-5--5-5-5-5--5-5-5-5--
A--\7-7-7-7--5-5-5-5--3-3-3-3--3-3-3-3--
E--\5-5-5-5--3-3-3-3--------------------

e------------------------------------------ x3
B------------------------------------------
G---------------------5-5-5-5--------------
D---7-7-7-7--5-5-5-5--5-5-5-5--2-2-2-2-----
A---7-7-7-7--5-5-5-5--3-3-3-3--2-2-2-2-----
E---5-5-5-5--3-3-3-3-----------0-0-0-0-----

And yeah, last time:
e-----
B-----
G-----
D--7--
A--7-- let ring
E--5--

Bridge II

Gtr I
e----0--------------|----0--------------| x2
B------1-0----------|------1-0-------3--|
G--2-------2---0----|--2-------2---0----|
D-------------------|-------------------|
A-------------------|-------------------|
E-------------------|-------------------|

Gtr II (Just guesses...)
e----------------------------------------------------| x2
B--1-1-x------3-3-x-1----1-1-x-3--3-1-3-0---3-3-x-1--|
G--2-2-x-0----0-0-x-2----2-2-x-0--0-----2---0-0-x-2--|
D--2-2-x-2----------2----2-2----------------------2--|
A----------------------------------------------------|
E----------------------------------------------------|

Chorus III - several times till end
(Heavy palm muting first time, and then just play open)

The wings...
e---------------------------------------| x1
B---------------------------------------|
G---------------------5-5-5-5--5-5-5-5--|
D---7-7-7-7--5-5-5-5--5-5-5-5--5-5-5-5--|
A---7-7-7-7--5-5-5-5--3-3-3-3--3-3-3-3--|
E---5-5-5-5--3-3-3-3--------------------|

e---------------------------------------| x3
B---------------------------------------|
G---------------------5-5-5-5-----------|
D---7-7-7-7--5-5-5-5--5-5-5-5--2-2-2-2--|
A---7-7-7-7--5-5-5-5--3-3-3-3--2-2-2-2--|
E---5-5-5-5--3-3-3-3-----------0-0-0-0--|

END
Comments