Tiamat - Visionnaire Chords & Tabs

 

Visionnaire Chords & Tabs

Tiamat Chords & Tabs

Version: 1 Type: Tab 0 ratings
1 star 2 stars 3 stars 4 stars 5 stars
comments

Visionnaire Tab

Groupe: TIAMAT

Titre: Visionnaire

INTRO
Acoustic guitar 1
e-------0-----------0-----------0-----------0------------------------
b-----6---6-------6---6-------6---6-------6---6----------------------
G---7-------7---7-------7---7-------7---7-------7--------------------
D-0-----------0-----------8-----------8------------------------------
A--------------------------------------------------------------------
E--------------------------------------------------------------------

Guitar 2 distortion
e--------------------------------------------------------------------
b--------------------------------------------------------------------
G-7--------------------7-\-3-----------------------------------------
D-7--------------------7-\-3-----------------------------------------
A-5--------------------5-\-1-----------------------------------------
E--------------------------------------------------------------------

Main Riff guitar 2
e--------------------------------------------------------------------
b--------------------------------------------------------------------
G-7---7/9---9/10/-12/--14\--3----------------------------------------
D-7---7/9---9/10/-12/--14\--3----------------------------------------
A-5---5/7---7/8-/-10/--12\--1----------------------------------------
E--------------------------------------------------------------------

Refrain: (clean) 
[ Tab from: http://www.guitartabs.cc/tabs/t/tiamat/visionnaire_tab.html ]
e-----------------I-----------0--------I-----------------------------------I
b-----------------I--------0-----0-----I--------------------------------0--I
G-----------0-----I-----2-----------2--I-----------0-----------5-----2-----I
D--------2-----2--I--------------------I--------2-----2-----5--------------I
A-----2-----------I--------------------I-----2-----------3--------2--------I
E--0--------------I--0-----------------I--0--------------------------------I


e-----------0--------I---------0------I-----------0--------------------------I
b--------0-----0-----I----1-0----0-1--I--------0-----0--------------------0--I
G-----2-----------2--I----------------I-----2-----------2--------5-----2-----I
D--------------------I----------------I-----------------------5--------------I
A--------------------I--0-------------I--0-----------------3--------2--------I
E--0-----------------I----------------I--------------------------------------

refrain guitar2 distortion
e--------------------------------------------------------------------
b--------------------------------------------------------------------
G-----------------------------5--4-----------------------------------
D-2---4-5--7----5-4----2------5--4-----------------------------------
A-2---4-5--7----5-4----2------3--2-----------------------------------
E-0---2-3--5----3-2----0---------------------------------------------


e--------------------------------------------------------------------
b--------------------------------------------------------------------
G-----------------------------2--------5---4-------------------------
D-2----------4-5--------------2--------5---4-------------------------
A-2----------4-5--------------0--------3---2-------------------------
E-0----------2-3-----------------------------------------------------

Gaia7204@gulliver.fr
Comments