Tiamat - Too Far Gone Chords & Tabs

 

Too Far Gone Chords & Tabs

Tiamat Chords & Tabs

Version: 1 Type: Tab 0 ratings
1 star 2 stars 3 stars 4 stars 5 stars
comments

Too Far Gone Tab

Tiamat - Too far gone
Album: Judas Christ
tabbed by: Icek
This solo is played on the beginning and in the middle of the song.

[ Tab from: http://www.guitartabs.cc/tabs/t/tiamat/too_far_gone_tab.html ]
E|------------------------------------------------------------------------------------|
H|-10-13-10-8-5-1h3-3-3h5p3-1-3------10h13p10-8-5-3-1s3-5-8-5-8-5-8-5-3-1-(5-8-5-3-1)-|
G|--9---------------------------2-2---------------------------------------------------|
D|------------------------------------------------------------------------------------|
A|------------------------------------------------------------------------------------|
E|------------------------------------------------------------------------------------|

E|---------------------------------------------------------------------------------------------------|
H|----------------------------------------------10h13p10-13-13-8-5-1p3-5-5-5-8-3-------------5-----5-|
G|-----------5---5-7-9-7-7-9-7-5---(7-9-7-5--)-----------------------------------1h2-5-5-5-7---5-5---|
D|-1s2-4-5-7---7-----------------7-(--------7)-------------------------------------------------------|
A|---------------------------------------------------------------------------------------------------|
E|---------------------------------------------------------------------------------------------------|
Comments