Tiamat - Sleeping Beauty Chords & Tabs

 

Sleeping Beauty Chords & Tabs

Tiamat Chords & Tabs

Version: 1 Type: Tab 0 ratings
1 star 2 stars 3 stars 4 stars 5 stars
comments

Sleeping Beauty Tab

                        TIAMAT  -  Sleeping Beauty
                          From the Album "Clouds"
                       Copyright Century Media 1992
                            Version 2.1 10/00

Transcribed by: Justin Meis
For Questions, Comments, Newest Version, or Corrections contact
Justin Meis at jmeis_cprqrs96@hotmail.com


Check Out Death Warp, With More Transcriptions On It 
http://tiger.towson.edu/~dalvis1                      


 . - palm mute          h - hammer on
 / - slide up           \ - slide down
 p - pull off           t - tap
() - ghost note        <> - pinch harmonic
 ~ - bend vibrato       ^ - natural harmonic
[ Tab from: http://www.guitartabs.cc/tabs/t/tiamat/sleeping_beauty_tab.html ]
Regular E tuning -
THE SLEEPING BEAUTY
RIFF A (light distortion, slow)
e-|--------------------------|----------------|
B-|--------------------------|----------------|
G-|--------------------------|----------------|
D-|-----------3-2------------|--2-2-3--2-2-3--|
A-|-(2)-----2-------3-2-3-2~-|--2-2-3--2-2-3--|
E-|--0-----------------------|--0-0-1--0-0-1--|
            .                   . .    . .
RIFF B (light distortion, slow)
e-|--------------------------|----------------|
B-|--------------------------|----------------|
G-|-(1)----------------------|----------------|
D-|--2--------3-2------------|--2-2-3--2-2-3--|
A-|--2------2-------3-2-3-2~-|--2-2-3--2-2-3--|
E-|--0-----------------------|--0-0-1--0-0-1--|
                                . .    . .    
RIFF C (light distortion, slow)
e-|--------------------------|----------------|
B-|--------------------------|----------------|
G-|-(1)-------5-4------------|----------------|
D-|--2------4-3-2---5-4-5-4~-|--2-2-3--2-2-3--|
A-|--2------2-------3-2-3-2~-|--2-2-3--2-2-3--|
E-|--0-----------------------|--0-0-1--0-0-1--|
            .                   . .    . .
RIFF D (clean, slow, let ring)
e-|-----0-------0-------0----0--0---|
B-|---0---0---0---0---0---0---0---0-|
G-|-4-------3-------4-------3-------|
D-|---------------------------------|
A-|---------------------------------|
E-|---------------------------------|

RIFF E (clean, slow, let ring)
e-|-----0-------0-------0----0--0---|
B-|---0---0---0---0---0---0---0---0-|
G-|-9-------7------10-------9-------|
D-|---------------------------------|
A-|---------------------------------|
E-|---------------------------------|

RIFF F (distorted, fast)
e-|---------------------------------------------------|
B-|---------------------------------------------------|
G-|-12----11----(9)---(7)---(5)-----------------------|
D-|-12----11-----9-----7-----5-----4------------------|
A-|-10-0-0-9-0-0-7-0-0-5-0-0-3-0-0-2-0-0-5-0-0-4--0-0-|
E-|--------------------------------------3-----2------|
       . .   . .   . .   . .   . .   . .   . . .

RIFF A - song beginning, intro : repeat
RIFF B - intro : repeat
RIFF C - intro : repeat
- synth enters, guitar quits..."alone I sit,I wonder why/you dream of..."
RIFF C - hvy dist. repeat "The sleeping beauty / She stops the bleeding..."
RIFF F - very fast, play twice
- synth enters
RIFF C - repeat
-synth enters
RIFF D - play twice, slow, let ring
RIFF E - play twice, slow, let ring
RIFF D - play twice
RIFF E - play twice
RIFF C - repeat

Check Out Death Warp, With More Transcriptions On It
http://tiger.towson.edu/~dalvis1
Comments